Song name
# A B C D E F G H I J K L M N O P Q R S T U V W X Y Z

Matthew Ryan - Return To Me tab

"Return to Me"
Tub Ring (aka "tUBrING")
Zoo Hypothesis (2004)

Tuned 1/2-step down (Eb, Ab, Db, Gb, Bb, Eb)

Alright, it seems like NO ONE on Earth listens to
Tub Ring except my brother and me, so tabs for them
are nearly impossible to find.  This is definetly
one of my favorite songs by them, and it seemed simple
enough, so here you are:  my first tab.  Not my first
Tub Ring tab, my first ever tab.  mojo387@hotmail.com

Intro (part 1)

Eb[-----------------------------------]
Bb[-----------------------------------]
Gb[-----------------------------------]
Db[-----------------------------------]   x2
Ab[-0-0---0---0-2-------3-3---3-2-3-2-]
Eb[---------3-------------------------]
PM- = =   = = = =       = =   = = = =

Eb[-----------]
Bb[-----------]
Gb[-3-1-------]
Db[-----4-3-1-]
Ab[-----------]
Eb[-----------]
PM-

Verse

Eb[-----------------------------------]
Bb[-----------------------------------]
Gb[-----------------------------------]
Db[-----------------------------------]
Ab[-0-0---0---0-2-------3-3---3-2-3-2-]
Eb[---------3-------------------------]
PM- = =   = = = =       = =   = = = =

Interlude

Eb[---------------------------------]
Bb[---------------------------------]
Gb[---------------------------------]
Db[---------------------------------]
Ab[-0-0-0-0-0-0-0-0-----------------]
Eb[-----------------3-3-3-3-2-2-2-2-]
PM- = = = = = = = = = = = = = = = =

Chorus

Eb[---------------------------------]
Bb[---------------------------------]
Gb[---------------------------------]
Db[-2-2-2-2-4-4-4-4-7-7-7-7-5-5-4-4-]
Ab[-0-0-0-0-2-2-2-2-5-5-5-5-3-3-2-2-]
Eb[---------------------------------]
PM-

Postchorus

Eb[-----------------------------------]
Bb[-----------------------------------]
Gb[-----------------------------------]
Db[-----------------------------------]
Ab[-0-0---0---0-2-------3-3---3-2-3-2-]
Eb[---------3-------------------------]
PM- = =   = = = =       = =   = = = =

Eb[---------------------------------------]
Bb[---------------------------------------]
Gb[-----------------------------3-1-------]
Db[---------------------------------4-3-1-]
Ab[-0-0---0---0-2-------3-----------------]
Eb[---------3-----------------------------]
PM- = =   = = = =       =       = = = = =

Bridge
   The guitar in the bridge couldn't be simpler.
When he says "again", play this and then stop
until the verse starts up again:

Eb[-----]
Bb[-----]
Gb[-----]
Db[-----]
Ab[-0-0-]
Eb[-----]
PM- = = 

**NOTE:
At the end of the last verse ("And if you think
I'm passive..."), the last four notes are NOT
palm-muted, and the last not is dragged out
and bent like so:

Eb[----------------------------------------]
Bb[----------------------------------------]
Gb[----------------------------------------]
Db[----------------------------------------]
Ab[-0-0---0---0-2-------3-3---3-2-3-2~~~~~-]
Eb[---------3------------------------------]
PM- = =   = = = =       = =   

Song Order:
Intro
Verse, Interlude, Verse
Chorus, Postchorus
Verse, Interlude, Verse
Chorus
Bridge
Verse
Chorus, Chorus
___
Again, this is my first tab, so it might be a little
sketchy.  Make sure you tune your guitar down, or it
won't sound right!!  Email questions, comments, etc. at
mojo387@hotmail.com.  Thanks.
Tap to rate this tab
# A B C D E F G H I J K L M N O P Q R S T U V W X Y Z