Song name
# A B C D E F G H I J K L M N O P Q R S T U V W X Y Z

Maximum Capacity - These Memories tab

     Both intros are played on clean electric.




                            INTRO A

|-------------------------------------------------------------------------|
|-------------------------------------------------------------------------|
|--11------11------9------9------7-----7------7-----7---------------------|
|---0----0---0-----0----0--0-----0----0-0-----0----0-0--------------------|
|---9--9------9----7--7-----7----5--5----5----5--5----5-------------------|
|-------------------------------------------------------------------------|




|-------------------------------------------------------------------------|
|-------------------------------------------------------------------------|
|--11------11------9------9------7-----7------7-----7---------------------|
|---0----0---0-----0----0--0-----0----0-0-----0----0-0--------------------|
|---9--9------9----7--7-----7----5--5----5----5--5----5-------------------|
|-------------------------------------------------------------------------|



|-------------------------------------------------------------------------|
|-------------------------------------------------------------------------|
|--11------11------9------9------7-----7------9-----9-----11-----11----14-|
|---0----0---0-----0----0--0-----0----0-0-----0----0-0-----0----0--0----0-|
|---9--9------9----7--7-----7----5--5----5----7--7----7----9--9-----9--12-|
|-------------------------------------------------------------------------|







                              INTRO B

|-------------------------------------------------------------------------|
|-------------------------------------------------------------------------|
|------12------12-----12------12--------14-----14------14-----14----------|
|------------0--------------0----------------11-------------11------------|
|--10-----10------10-----10---------12-----12------12-----12--------------|
|-------------------------------------------------------------------------|



|-------------------------------------------------------------------------|
|-------------------------------------------------------------------------|
|------12------12-----12------12--------14-----14------14-----14---14-----|
|------------0--------------0----------------11-------------11------0-----|
|--10-----10------10-----10---------12-----12------12-----12-------12-----|
|-------------------------------------------------------------------------|
Tap to rate this tab
# A B C D E F G H I J K L M N O P Q R S T U V W X Y Z