Song name
# A B C D E F G H I J K L M N O P Q R S T U V W X Y Z

Mayday Parade - I Swear This Time I Mean It tab

Hey, this is "I Swear This Time I Mean It" by Mayday Parade.

Okay so there is a chord mixture in this song in which I don't
know the name of exactly. It is a 'D/F#' and a 'Gsus2' put 
together. So, I will call that note an 'F#/G' because it is
basically part of an 'F#' bar chord and 'G' for the high 
'e' string which makes up a 'G' and is also a 'G' note. 
Also, the 'Em7' has an added 'G', but I'll just keep the 
name the same so it's easy to remember. Anyways get to the
playing. =]]

Note: Standard Tuning

[Chords used] 
    G - 320033
 F#/G - 200233
Cadd9 - x23033
  Em7 - x22033
    D - xx0232
Dsus4 - xx0233


[Intro] (G- F#/G - Cadd9 - G - Em7 - D - Dsus4 - Cadd9 - G)


[Verse 1] (G- F#/G - Cadd9 - G - Em7 - D - Dsus4 - Cadd9 - G)x2


[Pre-Chorus] (Cadd9 Dsus4 D Dsus4 Cadd9 Em7 D Dsus4)


[Chorus] (G F#/G Cadd9 Em7 D Dsus4)x2 


[Solo]
e|-------------3-2------------------------------------------3---3/5\3-|
B|-----3-----3----3-----3-------------------------------------3-------|
G|-4h5---4h5--------4h5---5-4--2h4-2-0---2-4-2---0-0-2h4-2-0----------|
D|--------------------------------------------------------------------|
A|--------------------------------------------------------------------|
E|--------------------------------------------------------------------|

[Verse 2] (G- F#/G - Cadd9 - G - Em7 - D - Dsus4 - Cadd9 - G)x2


[Pre-Chorus] (Cadd9 Dsus4 D Dsus4 Cadd9 Em7 D Dsus4)


[Chorus] (G F#/G Cadd9 Em7 D Dsus4)x2 


[Break] (Cadd9 Dsus4 D Dsus4 Cadd9 Dsus4 D Dsus4)


[Bridge] 'Guitar 1' (G F#/G Cadd9 Em7 D Dsus4)x2


'Guitar 2' Note: Picking the "G", "F#/G" and "Cadd9" then strumming. 
e|---------3-------------------3--------------------3--------|
B|-----3-----3----3--------3------3----3-------3------3----3-|
G|-------0------0------------2-------2-------0---0-------0---|
D|---0-----------------0-------------------------------------|
A|----------------------------------------3------------------|
E|-3----------------2----------------------------------------|



[Chorus] (G F#/G Cadd9 Em7 D Dsus4)x2
End on 'G'

'Guitar 2'
e|--3-------2-------3-------5-------|
B|----3-x4----3-x4----3-x4----3-x4--| NOTE: X2 and end on
G|----------------------------------| the note 'G' which is
D|----------------------------------|3rd fret high 'e' string.
A|----------------------------------|
E|----------------------------------|





Comments, questions or corrections are welcome. Please no hate mail.
The other tabs seemed to have the wrong chords and the solo was also a bit off so 
I fixed it up a bit. 
Thanks everyone =]]
Tap to rate this tab
 
# A B C D E F G H I J K L M N O P Q R S T U V W X Y Z