Song name
# A B C D E F G H I J K L M N O P Q R S T U V W X Y Z

Mayday Parade - Oh Well Oh Well tab

This is just the rhythm guitar. I'm putting it in drop D because they mostly play 
in drop D anyways.

Intro. (piano) play 2 times
e|-------------------------------|
B|-------------------------------|
G|-6~-------------------4~-------|
D|-6~-----6~-----4~-----4~-------|
A|-4~-----6~-----4~-----2~-------|
D|--------6~-----4~--------------|

chorus (oh well, oh well piano) play 4 times
e|-----------------------|
B|-----------------------|
G|-6~----~---4~----------|
D|-6~---6~---4~---4~-----|
A|-4~---6~---2~---4~-----|
D|--~---6~----~---4~-----|

verse (hold this progression first time around then play in groups of 8)
e|-----------------------|
B|-----------------------|
G|-6-----------------4---|
D|-6-----6-----4-----4---|
A|-4-----6-----4-----2---|
D|-------6-----4---------|

Chorus (oh well, oh well)
e|------------------------------------------------------------------|
B|------------------------------------------------------------------|
G|-6-6-6-6---------4-4-4-4---------6-6-6-6---------4-4-4-4-x-x-x-x--|
D|-6-6-6-6-6-6-6-6-4-4-4-4-4-4-4-4-6-6-6-6-6-6-6-6-4-4-4-4-x-x-x-x--|
A|-4-4-4-4-6-6-6-6-2-2-2-2-4-4-4-4-4-4-4-4-6-6-6-6-2-2-2-2-x-x-x-x--|
D|---------6-6-6-6---------4-4-4-4---------6-6-6-6---------x-x-x-x--|

e|----------------------------------------------------------------|
B|----------------------------------------------------------------|
G|-6-6-6-6---------4-4-4-4---------6-6-6-6---------4-4-4-4-4-4----|
D|-6-6-6-6-6-6-6-6-4-4-4-4-4-4-4-4-6-6-6-6-6-6-6-6-4-4-4-4-4-4----|
A|-4-4-4-4-6-6-6-6-2-2-2-2-4-4-4-4-4-4-4-4-6-6-6-6-2-2-2-2-2-2----|
D|---------6-6-6-6---------4-4-4-4---------6-6-6-6----------------|

"Sit still" Play twice
e|----------------------------------------------------------------------|
B|----------------------------------------------------------------------|
G|-6-6-x-x-6-6-x-x-4-4-x-x-4-4-x-x-----------------4-4-4-4-4-4-4-4-4----|
D|-6-6-x-x-6-6-x-x-4-4-x-x-4-4-x-x-6-6-6-6-4-4-4-4-4-4-4-4-4-4-4-4-4----|
A|-4-4-x-x-4-4-x-x-2-2-x-x-2-2-x-x-6-6-6-6-4-4-4-4-2-2-2-2-2-2-2-2-2----|
D|---------------------------------6-6-6-6-4-4-4-4----------------------|

verse 2 same progression as verse 1, and the next chorus is the same as the previous one

bridge/outro play twice
e|-----------------------------------------|
B|-----------------------------------------|
G|-6~--------4~----------------4~----------|
d|-6~--------4~--------6~--4~--4~----------|
A|-4~--------2~--------6~--4~--2~----------|
D|---------------------6~--4~--------------|

"and I've been talking to god" palm mute except the last couple.
e|---------------------------------------------------------------------|
B|---------------------------------------------------------------------|
G|-6-6-6-6-6-6-6-6-4-4-4-4-4-4-4-4-----------------4-4-4-4-4-4-4-4-----|
D|-6-6-6-6-6-6-6-6-4-4-4-4-4-4-4-4-6-6-6-6-4-4-4-4-4-4-4-4-4-4-4-4-----|
A|-4-4-4-4-4-4-4-4-2-2-2-2-2-2-2-2-6-6-6-6-4-4-4-4-2-2-2-2-2-2-2-2-----|
D|---------------------------------6-6-6-6-4-4-4-4---------------------|
   . . . . . . . . . . . . . . . . . . . . . . . . . . . . .

"Its not the first time" play 4 times (on the 3rd time there is a pause at the end Listen to song)
e|---------------------------------------------------------------------|
B|---------------------------------------------------------------------|
G|-6-6-6-6-6-6-6-6-4-4-4-4-4-4-4-4-----------------4-4-4-4-4-4-4-4-----|
D|-6-6-6-6-6-6-6-6-4-4-4-4-4-4-4-4-6-6-6-6-4-4-4-4-4-4-4-4-4-4-4-4-----|
A|-4-4-4-4-4-4-4-4-2-2-2-2-2-2-2-2-6-6-6-6-4-4-4-4-2-2-2-2-2-2-2-2-----|
D|---------------------------------6-6-6-6-4-4-4-4---------------------|

"Ill keep you warm"
e|-------------------------------|
B|-------------------------------|
G|-6~-------------------4~-------|
D|-6~-----6~-----4~-----4~-------|
A|-4~-----6~-----4~-----2~-------|
D|--------6~-----4~--------------|
Tap to rate this tab
 
# A B C D E F G H I J K L M N O P Q R S T U V W X Y Z