Song name
# A B C D E F G H I J K L M N O P Q R S T U V W X Y Z

Mayhem - Funeral Fog tab

Mayhem
Funeral Fog
from De Mysteriis Dom Sathanas

Riff 1

|-------------------------------------------------------------------|
|-------------------------------------------------------------------|
|-------------------------------13-13-13-13-13-13-12-12-12-12-12-12-|
|-7-7-7-7-7-7-11-11-11-11-11-11-13-13-13-13-13-13-12-12-12-12-12-12-|
|-7-7-7-7-7-7-11-11-11-11-11-11-11-11-11-11-11-11-10-10-10-10-10-10-|
|-5-5-5-5-5-5-9--9--9--9--9--9--------------------------------------|

|-------------------------------------------------------------------|
|-------------------------------------------------------------------|
|-------------------------------12-12-12-12-12-12-11-11-11-11-11-11-|
|-7-7-7-7-7-7-10-10-10-10-10-10-12-12-12-12-12-12-11-11-11-11-11-11-|
|-7-7-7-7-7-7-10-10-10-10-10-10-10-10-10-10-10-10-9--9--9--9--9--9--|
|-5-5-5-5-5-5-8--8--8--8--8--8--------------------------------------|


Riff 2 - Guitar 1

|-------------------------------------------------------------------|
|-------------------------------------------------------------------|
|-------------------------------------------------------------------|
|-5-5-5-5-5-5-5-5-5-5-5-5-5-5-5-5-3-3-3-3-3-3-3-3-3-3-3-3-3-3-3-3---|
|-5-5-5-5-5-5-5-5-5-5-5-5-5-5-5-5-3-3-3-3-3-3-3-3-3-3-3-3-3-3-3-3---|
|-3-3-3-3-3-3-3-3-3-3-3-3-3-3-3-3-1-1-1-1-1-1-1-1-1-1-1-1-1-1-1-1---|


Riff 2 - Guitar 2

|-------------------------------------------------------------------|
|-------------------------------------------------------------------|
|-------------------------------------------------------------------|
|-------------------------------------------------------------------|
|---------------------------------5-5-5-5-5-5-5-5-------------------|
|-3-3-3-3-3-3-3-3-6-6-6-6-6-6-6-6-----------------6-6-6-6-6-6-6-6---|

|-------------------------------------------------------------------|
|-------------------------------------------------------------------|
|-------------------------------------------------------------------|
|-------------------------------------------------------------------|
|---------------------------------3-3-3-3-3-3-3-3-------------------|
|-1-1-1-1-1-1-1-1-5-5-5-5-5-5-5-5-----------------4-4-4-4-4-4-4-4---|


Riff 3

|-------------------------------------------------------------------|
|-------------------------------------------------------------------|
|-------------------------------------------------------------------|
|-----------------7-6------------------7-6--------------------------|
|-5-5-5-5-5-5-6-5-5-4--5-5-5-5-5-5-6-5-5-4--------------------------|
|-3-3-3-3-3-3-4-3------3-3-3-3-3-3-4-3------------------------------|


Riff 4 - Guitar 2 (Under Riff 2 - Guitar 1)

|-------------------------------------------------------------------|
|-------------------------------------------------------------------|
|-------------------------------------------------------------------|
|-------------------------------------------------------------------|
|-----------------5-5-5-5-------------------------5-5-5-5-6-6-6-6---|
|-3-3-3-3-6-6-6-6---------6-6-6-6-3-3-3-3-6-6-6-6-------------------|

|-------------------------------------------------------------------|
|-------------------------------------------------------------------|
|-------------------------------------------------------------------|
|-------------------------------------------------------------------|
|-----------------3-3-3-3-------------------------3-3-3-3-5-5-5-5---|
|-1-1-1-1-5-5-5-5---------4-4-4-4-1-1-1-1-5-5-5-5-------------------|


Riff 4 - Guitar 2 - Fill 1

|-------------------------------------------------------------------|
|-------------------------------------------------------------------|
|-------------------------------------------------------------------|
|-------------------------------------------------------------------|
|-----------------5-5-5-5-------------------------5-5-5-5-6-6-6-6---|
|-3-3-3-3-6-6-6-6---------6-6-6-6-3-3-3-3-6-6-6-6-------------------|

|-------------------------------------------------------------------|
|-------------------------------------------------------------------|
|-------------------------------------------------------------------|
|-------------------------------------------------3-3-3-3-6-6-6-6---|
|-----------------3-3-3-3-------------------------------------------|
|-1-1-1-1-5-5-5-5---------4-4-4-4-1-1-1-1-5-5-5-5-------------------|


Riff 5

|-------------------------------------------------------------------|
|-------------------------------------------------------------------|
|-------------------------------------------------------------------|
|-------------------------------------------------------------------|
|-2-2-2-2-9-9-8-8-7-7-7-7-3-3-3-3-----------------------------------|
|-0-0-0-0-7-7-6-6-5-5-5-5-1-1-1-1-----------------------------------|


Riff 6

|-------------------------------------------------------------------|
|-------------------------------------------------------------------|
|-------------------------------------------------------------------|
|---------4-4-4-4-----------------5-5-5-5---------------------------|
|-2-2-2-2-2-2-2-2-2-2-2-2-4-4-4-4-3-3-3-3---------------------------|
|-0-0-0-0---------0-0-0-0-2-2-2-2-----------------------------------|


Riff 7 - Guitar 1

|-------------------------------------------------------------------|
|-------------------------------------------------------------------|
|-------------------------------------------------------------------|
|-------------------------------------------------------------------|
|---------7-7-7-7-10-10-10-10-7-7-7-7-8-8-8-8-11-11-11-11-10-10-10--|
|-0-0-0-0-----------------------------------------------------------|

|-------------------------------------------------------------------|
|-------------------------------------------------------------------|
|-------------------------------------------------------------------|
|-------------------------------------------------------------------|
|-10-7-7-7-7-10-10-10-10-7-7-7-7-------------9-9-9-9---------7-7-7-7|
|--------------------------------10-10-10-10---------8-8-8-8--------|


Riff 8 - Guitar 2 (Under Riff 7 - Guitar 1)

|-------------------------------------------------------------------|
|-------------------------------------------------------------------|
|-------------------------------------------------------------------|
|---------------------------------------------------------5-5-5-5---|
|-2-2-2-2-2-2-2-2-3-3-3-3-3-3-3-3-2-2-2-2-2-2-2-2-5-5-5-5-3-3-3-3---|
|-0-0-0-0-0-0-0-0-1-1-1-1-1-1-1-1-0-0-0-0-0-0-0-0-3-3-3-3-----------|


Riff 9

|-------------------------------------------------------------------|
|-------------------------------------------------------------------|
|-------------------------------------------------------------------|
|-----------------5-5-----------------------------------------------|
|-2-2-2-2-2-2-2-2-3-3-2-2-2-2-2-2-5-5-2-2-2-2-2-2-2-2-2-2-3-3-3-3---|
|-0-0-0-0-0-0-0-0-----0-0-0-0-0-0-3-3-0-0-0-0-0-0-0-0-0-0-1-1-1-1---|

|-------------------------------------------------------------------|
|-------------------------------------------------------------------|
|-------------------------------------------------------------------|
|-----------------7-7-----------------------------------------------|
|-4-4-4-4-4-4-4-4-5-5-4-4-4-4-4-4-7-7-4-4-4-4-4-4-4-4-4-4-3-3-3-3---|
|-2-2-2-2-2-2-2-2-----2-2-2-2-2-2-5-5-2-2-2-2-2-2-2-2-2-2-1-1-1-1---|


Riff 10 (Outro, you can also play Riff 5
 if you like)
|-------------------------------------------------------------------|
|-------------------------------------------------------------------|
|-------------------------------------------------------------------|
|-------------------------------------------------------------------|
|---------7-7-7-7-10-10-10-10-7-7-7-7-8-8-8-8-7-7-3-3-2-2-2-2-------|
|-0-0-0-0-----------------------------6-6-6-6-5-5-1-1-0-0-0-0-------|


END
Tap to rate this tab
# A B C D E F G H I J K L M N O P Q R S T U V W X Y Z