Mayonnaise - Last Christmas tab

Song: Last Christmas
Covered by: Mayonnaise
Album: N/A
Transcribed and Tabbed by: Pakwan
Tuning: E Standard
Lead Guitar Ė Distorted
Rhythm Guitar - Clean
Bass

Legend:
/- Slide
h- hammer-on
p- pull-off
^- Bend
~- Ring Out

I was just looking around for Rock Christmas songs in YouTube last week for our rock
band show in our school and I was surprise when I discovered that Mayonnaise covered this
song (Last Christmas) in one of their concert (donít know where they did the show). I
was Amazed with their version so my band did a little cover of their song (Last Christmas).
Reason in making a Tab of this is to help all those Bands/Guitar Players out their so
they may figure out (almost) the song by this tab, We didnít actually mimic the song
because we made our own guitar solos and fill ins in the song and I didnít tab the last 
solo of the song (I donít like the last solo, itís a kind of crappy in my ears). Hope 
this tab will
help you.

Anyway this is my first tab so itís a little crump up and Iím so damn crap in using
Windows word, just adjust in my formats. Because Iím not into tabbing guitar tabs.

Intro Part I Ė without Drums:

Lead - Distorted
e|-----------------------------------------------------------------5----5----5---|
B|--55--3---5/7--5/7-3--5/7--5/7-3--2-2h3p2-----5/7-5--5-7-8-7--2h3--2h3--2h3----|
G|-------------------------------------------4^----------------------------------|
D|-------------------------------------------------------------------------------|
A|-------------------------------------------------------------------------------|
E|-------------------------------------------------------------------------------|

Rhythm Ė Clean
   Palm Mute			Palm Mute	     Palm Mute	      Palm Mute
e|-------------------------------------------------------------------------------|
B|-------------------------------------------------------------------------------|
G|-7-7-7-7-7-7-7-7-7-7---4-4-4-4-4-4-4-4-4-4-4-4---------------------------------|
D|-7-7-7-7-7-7-7-7-7-7---4-4-4-4-4-4-4-4-4-4-4-4-5-5-5-5-5-5-5-5-7-7-7-7-7-7-7-7-|
A|-5-5-5-5-5-5-5-5-5-5---2-2-2-2-2-2-2-2-2-2-2-2-5-5-5-5-5-5-5-5-7-7-7-7-7-7-7-7-|
E|-----------------------------------------------3-3-3-3-3-3-3-3-5-5-5-5-5-5-5-5-|

Bass
								  (Drums Approaching)
G|-------------------------------------------------------------------------------|
D|-------------------------------------------------------------------------------|
A|-------------------------------------------------------------------------------|
E|----------------------------------------------------------------5-5-5-5-5-5-5-5|

Intro Part II Ė with Drums:

Lead - Distorted
e|-----------------------------------------------------------------5----5----5---|
B|--55--3---5/7--5/7-3--5/7--5/7-3--2-2h3p2-----5/7-5--5-7-8-7--2-2--2-2--2-2----|
G|-------------------------------------------4^----------------------------------|
D|-------------------------------------------------------------------------------|
A|-------------------------------------------------------------------------------|
E|-------------------------------------------------------------------------------|

Rhythm Ė Distorted
e|-------------------------------------------------------------------------------|
B|-------------------------------------------------------------------------------|
G|-7-7-7-7-7-7-7-7-7-7---4-4-4-4-4-4-4-4-4-4-4-4---------------------------------|
D|-7-7-7-7-7-7-7-7-7-7---4-4-4-4-4-4-4-4-4-4-4-4-5-5-5-5-5-5-5-5-7-7-7-7-7-7-7-7-|
A|-5-5-5-5-5-5-5-5-5-5---2-2-2-2-2-2-2-2-2-2-2-2-5-5-5-5-5-5-5-5-7-7-7-7-7-7-7-7-|
E|-----------------------------------------------3-3-3-3-3-3-3-3-5-5-5-5-5-5-5-5-|

Bass
G|-------------------------------------------------------------------------------|
D|-------------------------------------------------------------------------------|
A|-5-5-5-5-5-5-5-5-5-5---2-2-2-2-2-2-2-2-2-2-2-2---------------------------------|
E|-----------------------------------------------3-3-3-3-3-3-3-3-5-5-5-5-5-5-5-5-|

Chorus:
Lead and Rhythm - Distorted
	D			    B			G		A
e|-------------------------------------------------------------------------------|
B|-------------------------------------------------------------------------------|
G|-7-7-7-7-7-7-7-7-7-7---4-4-4-4-4-4-4-4-4-4-4-4---------------------------------|
D|-7-7-7-7-7-7-7-7-7-7---4-4-4-4-4-4-4-4-4-4-4-4-5-5-5-5-5-5-5-5-7-7-7-7-7-7-7-7-|
A|-5-5-5-5-5-5-5-5-5-5---2-2-2-2-2-2-2-2-2-2-2-2-5-5-5-5-5-5-5-5-7-7-7-7-7-7-7-7-|
E|-----------------------------------------------3-3-3-3-3-3-3-3-5-5-5-5-5-5-5-5-|

Bass
G|-------------------------------------------------------------------------------|
D|-------------------------------------------------------------------------------|
A|-5-5-5-5-5-5-5-5-5-5---2-2-2-2-2-2-2-2-2-2-2-2---------------------------------|
E|-----------------------------------------------3-3-3-3-3-3-3-3-5-5-5-7-7-5-5-5-|

Guitar Solo:
Lead - Distorted
e|-----------------------------------------------------------------5----5----5---|
B|--55--3---5/7--5/7-3--5/7--5/7-3--2-2h3p2-----5/7-5--5-7-8-7--2-2--2-2--2-2----|
G|-------------------------------------------4^----------------------------------|
D|-------------------------------------------------------------------------------|
A|-------------------------------------------------------------------------------|
E|-------------------------------------------------------------------------------|

Rhythm Ė Distorted
e|-------------------------------------------------------------------------------|
B|-------------------------------------------------------------------------------|
G|-7-7-7-7-7-7-7-7-7-7---4-4-4-4-4-4-4-4-4-4-4-4---------------------------------|
D|-7-7-7-7-7-7-7-7-7-7---4-4-4-4-4-4-4-4-4-4-4-4-5-5-5-5-5-5-5-5-7-7-7-7-7-7-7-7-|
A|-5-5-5-5-5-5-5-5-5-5---2-2-2-2-2-2-2-2-2-2-2-2-5-5-5-5-5-5-5-5-7-7-7-7-7-7-7-7-|
E|-----------------------------------------------3-3-3-3-3-3-3-3-5-5-5-5-5-5-5-5-|

Bass
G|-------------------------------------------------------------------------------|
D|-------------------------------------------------------------------------------|
A|-5-5-5-5-5-5-5-5-5-5---2-2-2-2-2-2-2-2-2-2-2-2---------------------------------|
E|-----------------------------------------------3-3-3-3-3-3-3-3-5-5-5-5-5-5-5-5-|

Verse I: x2
Lead Ė Distorted
   ---Palm Mute---           ----Palm Mute----         Palm Mute        -Palm Mute-----|
e|-------------------------------------------------------------------------------------|
B|-------------------------------------------------------------------------------------|
G|-7-7-7-7-7-7-7-7--7-7---4-4-4-4-4-4-4-4-4-4--4-4-------------------------------------|
D|-7-7-7-7-7-7-7-7--7-7---4-4-4-4-4-4-4-4-4-4--4-4-5-5-5-5-5--5-5-5-7-7-7-7-7-7--7-7---|
A|-5-5-5-5-5-5-5-5--5-5---2-2-2-2-2-2-2-2-2-2--2-2-5-5-5-5-5--5-5-5-7-7-7-7-7-7--7-7---|
E|-------------------------------------------------3-3-3-3-3--3-3-5-5-5-5-5-5-5--5-5---|

Rhythm Ė Distorted

   ---Palm Mute---           ----Palm Mute----         Palm Mute        -Palm Mute-----|
e|-------------------------------------------------------------------------------------|
B|-------------------------------------------------------------------------------------|
G|-7-7-7-7-7-7-7-7--7-7---4-4-4-4-4-4-4-4-4-4--4-4-------------------------------------|
D|-7-7-7-7-7-7-7-7--7-7---4-4-4-4-4-4-4-4-4-4--4-4-5-5-5-5-5--5-5-5-7-7-7-7-7-7--7-7---|
A|-5-5-5-5-5-5-5-5--5-5---2-2-2-2-2-2-2-2-2-2--2-2-5-5-5-5-5--5-5-5-7-7-7-7-7-7--7-7---|
E|-------------------------------------------------3-3-3-3-3--3-3-5-5-5-5-5-5-5--5-5---|

Bass
G|-------------------------------------------------------------------------------|
D|-------------------------------------------------------------------------------|
A|-5-5-5-5-5-5-5-5-5-5---2-2-2-2-2-2-2-2-2-2-2-2---------------------------------|
E|-----------------------------------------------3-3-3-3-3-3-3-3-5-5-5-5-5-5-5-5-|

Chorus:
Lead and Rhythm - Distorted
	D			    B			G		A
e|-------------------------------------------------------------------------------|
B|-------------------------------------------------------------------------------|
G|-7-7-7-7-7-7-7-7-7-7---4-4-4-4-4-4-4-4-4-4-4-4---------------------------------|
D|-7-7-7-7-7-7-7-7-7-7---4-4-4-4-4-4-4-4-4-4-4-4-5-5-5-5-5-5-5-5-7-7-7-7-7-7-7-7-|
A|-5-5-5-5-5-5-5-5-5-5---2-2-2-2-2-2-2-2-2-2-2-2-5-5-5-5-5-5-5-5-7-7-7-7-7-7-7-7-|
E|-----------------------------------------------3-3-3-3-3-3-3-3-5-5-5-5-5-5-5-5-|

Bass
G|-------------------------------------------------------------------------------|
D|-------------------------------------------------------------------------------|
A|-5-5-5-5-5-5-5-5-5-5---2-2-2-2-2-2-2-2-2-2-2-2---------------------------------|
E|-----------------------------------------------3-3-3-3-3-3-3-3-5-5-5-7-7-5-5-5-|

Narda Version:
Lead Ė Distorted
   D
e|----0-----0-----0-----0-----0---------|
B|------3-----3-----3-----3-----3-------|
G|--------------------------------------|
D|--0-----0-----0-----0-----0-----0-----|
A|--------------------------------------|
E|--------------------------------------|

    Bm
e|----0-----0-----0-----0-----0---------|
B|------3-----3-----3-----3-----3-------|
G|--------------------------------------|
D|--------------------------------------|
A|--2-----2-----2-----2-----2-----2-----|
E|--------------------------------------|

    G
e|----0-----0-----0-----0-----0---------|
B|------3-----3-----3-----3-----3-------|
G|--------------------------------------|
D|--------------------------------------|
A|--------------------------------------|
E|--3-----3-----3-----3-----3-----3-----|

   A
e|----0-----0-----3-----2-----2---------|
B|------3-----3-----3-----3-----3-------|
G|--------------------------------------|
D|--------------------------------------|
A|--0-----0-----0-----0-----0-----0-----|
E|--------------------------------------|

Rhythm Ė Distorted
   Palm Mute			Palm Mute	     Palm Mute	      Palm Mute
e|-------------------------------------------------------------------------------|
B|-------------------------------------------------------------------------------|
G|-7-7-7-7-7-7-7-7-7-7---4-4-4-4-4-4-4-4-4-4-4-4---------------------------------|
D|-7-7-7-7-7-7-7-7-7-7---4-4-4-4-4-4-4-4-4-4-4-4-5-5-5-5-5-5-5-5-7-7-7-7-7-7-7-7-|
A|-5-5-5-5-5-5-5-5-5-5---2-2-2-2-2-2-2-2-2-2-2-2-5-5-5-5-5-5-5-5-7-7-7-7-7-7-7-7-|
E|-----------------------------------------------3-3-3-3-3-3-3-3-5-5-5-5-5-5-5-5-|

Bass
G|-------------------------------------------------------------------------------|
D|-------------------------------------------------------------------------------|
A|-5---5---5---5--5--5---2---2---2---2---2---2-----------------------------------|
E|-----------------------------------------------3---3---3--3--3-5--5--5--5--5---|

Chorus:
Lead and Rhythm - Distorted
	D			    B			G		A
e|-------------------------------------------------------------------------------|
B|-------------------------------------------------------------------------------|
G|-7-7-7-7-7-7-7-7-7-7---4-4-4-4-4-4-4-4-4-4-4-4---------------------------------|
D|-7-7-7-7-7-7-7-7-7-7---4-4-4-4-4-4-4-4-4-4-4-4-5-5-5-5-5-5-5-5-7-7-7-7-7-7-7-7-|
A|-5-5-5-5-5-5-5-5-5-5---2-2-2-2-2-2-2-2-2-2-2-2-5-5-5-5-5-5-5-5-7-7-7-7-7-7-7-7-|
E|-----------------------------------------------3-3-3-3-3-3-3-3-5-5-5-5-5-5-5-5-|

Bass
G|-------------------------------------------------------------------------------|
D|-------------------------------------------------------------------------------|
A|-5-5-5-5-5-5-5-5-5-5---2-2-2-2-2-2-2-2-2-2-2-2---------------------------------|
E|-----------------------------------------------3-3-3-3-3-3-3-3-5-5-5-7-7-5-5-5-|

Outro: Woah oh Woah oh
Lead and Rhythm - Distorted
	D			    B			G		A
e|-------------------------------------------------------------------------------|
B|-------------------------------------------------------------------------------|
G|-7-7-7-7-7-7-7-7-7-7---4-4-4-4-4-4-4-4-4-4-4-4---------------------------------|
D|-7-7-7-7-7-7-7-7-7-7---4-4-4-4-4-4-4-4-4-4-4-4-5-5-5-5-5-5-5-5-7-7-7-7-7-7-7-7-|
A|-5-5-5-5-5-5-5-5-5-5---2-2-2-2-2-2-2-2-2-2-2-2-5-5-5-5-5-5-5-5-7-7-7-7-7-7-7-7-|
E|-----------------------------------------------3-3-3-3-3-3-3-3-5-5-5-5-5-5-5-5-|

Bass
G|-------------------------------------------------------------------------------|
D|-------------------------------------------------------------------------------|
A|-5-5-5-5-5-5-5-5-5-5---2-2-2-2-2-2-2-2-2-2-2-2---------------------------------|
E|-----------------------------------------------3-3-3-3-3-3-3-3-5-5-5-7-7-5-5-5-|

Ending:

Lead and Rhythm - Distorted
   D
e|----|
B|----|
G|-7~-|
D|-7~-|
A|-5~-|
E|----|

Bass
G|----|
D|----|
A|-5~-|
E|----|

Hope you liked it!
Do you need to figure out songs? That you canít figure out by your own ears?
Try my ears! Leave a comment or PM me of the songs that you need my help and
Iíll try to tab it out by my ears. Tah! Tah!
Tap to rate this tab
 
# A B C D E F G H I J K L M N O P Q R S T U V W X Y Z