Song name
# A B C D E F G H I J K L M N O P Q R S T U V W X Y Z

Mc The Max - Returns tab

-------------------------------------------------------------------------------
			    Returns - MC The Max
-------------------------------------------------------------------------------
Tabbed by: me
Email:mungchungy73@hotmail.com

Tuning: Standard: E, A, D, G, B, E

After First Guitar Screech thing
(i only put the first fret of each intro part)
                                           x x x
e|-------------------------------------------------------------------------------|
B|-------------------------------------------------------------------------------|
G|-------------------------------------------------------------------------------|
D|-- 9--5-----9-5------9-7---0-7-5-4---------------------------------------------|
A|7-----------------5------------------------------------------------------------|
E|-----------8-------------------------------------------------------------------|

e|--------------------------------------------------------------------------------------|
B|--------------------------------------------------------------------------------------|
G|--------------------------------------------------------------------------------------|
D|-----9----------9----------9-----0-0-7-7-5-5-4-4--------------------------------------|
A|7-7---7----------------5-5--5---------------------------------------------------------|
E|------------8-8--8--------------------------------------------------------------------|
     then it changes to
e|--------------------------------------------------------------------------------|
B|--------------------------------------------------------------------------------|
G|--------------------------------------------------------------------------------|
D|-----9-------12--------9---------5-7-4h5----------------------------------------|
A|7-7---7------------5-5--5-----5-------------------------------------------------|
E|----------8-8---8---------------------------------------------------------------|

e|--------------------------------------------------------------------|
B|--------------------------------------------------------------------|
G|--------------------------------------------------------------------|
D|---9----------------12-----------------9-9-9-7-7-7-4h5-----5-7-4h5--|
A|77--7-7-7-7---------------------5--5--------------------5-5---------|
E|----------------8-8-----8-8-8-8-------------------------------------|
(repeat except last part play C)

    Chorus:
    Em     C     G     D    E  F#m G#m
e|-----------------------------------------------------------------|
B|-----------------------------------------------------------------|
G|-------4----------7----------------------------------------------|
D|-2-----4-----4----7-------2---4----5-----12--5--7---9---7--5--4--|
A|-2-----2-----4----5-------2---4----5-----12--5--7----------------|
E|-0-----------2------------0---2----3-----10--3--5----------------|

Octave Change (play one fret higher)

(the song repeats a lot of parts) this is my first time tabbing so sorry if it sucks

| /  slide up
| \  slide down
| h  hammer-on
| p  pull-off
| ~  vibrato
| +  harmonic
| x  Mute notea
Tap to rate this tab
# A B C D E F G H I J K L M N O P Q R S T U V W X Y Z