Song name
# A B C D E F G H I J K L M N O P Q R S T U V W X Y Z

Mc5 - Teenage Lust tab

----------------------------------------------------------------------------
			     Teenage Lust - Mc5
----------------------------------------------------------------------------]
Tabbed by: Nicky Degheselle
Email: nikskeopnieuwonline1@hotmail.com

Tuning:standard

verse 1

e|--------------------------------------------------------------------------|
B|--------------------------------------------------------------------------|
G|---5/7-7~-7----5/7--------------------------------------------------------|
D|---5/7-5~-5----5/7-10~-10------x4-----------------------------------------|
A|---3/5---------3/5-10~-10-------------------------------------------------|
E|--------------------8~--8-------------------------------------------------|

pre-chorus

e|--------------------------------------------------------------------------|
B|--------------------------------------------------------------------------|
G|--------------------------------------------------------------------------|
D|--101010101010101010101010101010101010--------12--------------------------|
A|--101010101010101010101010101010101010--------12--------------------------|
E|---8-8-8-8-8-8-8-8-8-8-8-8-8-8-8-8-8-8--------10--------------------------|

chorus

e|--------------------------------------------------------------------------|
B|--------------------------------------------------------------------------|
G|-----12----12-------10----10-------12----12-------10----10----------------|
D|--------12----12-12----10----10-10----12----12-12----10----10-10----------|
A|--------------------------------------------------------------------------|
E|--------------------------------------------------------------------------|

bridge

e|--------------------------------------------------------------------------|
B|--------------------------------------------------------------------------|
G|---5-7--777----5/7--------------------------------------------------------|
D|---5-7--555----5/7--101010----x2------------------------------------------|
A|---3-5---------3/5--101010------------------------------------------------|
E|---------------------8-8-8------------------------------------------------|

verse 2

e|--------------------------------------------------------------------------|
B|--------------------------------------------------------------------------|
G|---5/7-7~-7----5/7--------------------------------------------------------|
D|---5/7-5~-5----5/7-10~-10------x4-----------------------------------------|
A|---3/5---------3/5-10~-10-------------------------------------------------|
E|--------------------8~--8-------------------------------------------------|

pre-chorus

e|--------------------------------------------------------------------------|
B|--------------------------------------------------------------------------|
G|--------------------------------------------------------------------------|
D|--101010101010101010101010101010101010-121212-12--------------------------|
A|--101010101010101010101010101010101010-121212-12--------------------------|
E|---8-8-8-8-8-8-8-8-8-8-8-8-8-8-8-8-8-8-101010-10--------------------------|

chorus

e|--------------------------------------------------------------------------|
B|--------------------------------------------------------------------------|
G|-----12----12-------10----10-------12----12-------10----10----------------|
D|--------12----12-12----10----10-10----12----12-12----10----10-10----------|
A|--------------------------------------------------------------------------|
E|--------------------------------------------------------------------------|

bridge

e|--------------------------------------------------------------------------|
B|--------------------------------------------------------------------------|
G|--77777-88888-10-10h10----------------------------------------------------|
D|--77777-88888-10-10h10----------------------------------------------------|
A|--55555-66666--8--8h-8-...------------------------------------------------|
E|--------------------------------------------------------------------------|

solo

verse 3(same as other verses)
pre-chorus
chorus
outro

great song!

| /  slide up
| \  slide down
| h  hammer-on
| p  pull-off
| ~  vibrato
| +  harmonic
| x  Mute note
===============================================================================
Tap to rate this tab
# A B C D E F G H I J K L M N O P Q R S T U V W X Y Z