Song name
# A B C D E F G H I J K L M N O P Q R S T U V W X Y Z

Mccartney Paul - Hope Of Deliverance tab

#
Date: Mon, 22 Jan 1996 23:18:02 +0100 (MET)
From: Sylvain Vandemeulebroecke 
Subject: Hope of Deliverance solo (Paul Mc Cartney)


Hello,

I enjoy to find tablatures and lyrics of HOPE OF DELIVERANCE from Paul Mc
Cartney.

I've searching for the solo.  It looks like this (cf attach file).


From: vdm.sly@mail.ccim.be
Subject: Solo HOPE OF DELIVERANCE - PAUL MAC CARTNEY

HOPE OF DELIVERANCE - PAUL MAC CARTNEY
 
[Solo]

  Em            G     Em    Am        G     Em    Am                     Em
|-----------0-2-3-5-7-----------------3-5-7---------------------------------|
|-----0-1-3-----------5-7-8-----------------5-7-8----------------------7-8--|
|-0-2-----------------------5-4545454-------------5-7-9------------7-9------|
|-------------------------------------------------------7-777-9-10----------|
|---------------------------------------------------------------------------|
|---------------------------------------------------------------------------|

  Am    Em  Am    Em Am    C     Em        Am      C 
|-8-7-5-3---8-7-5-3--3-5-7-8-8-8-7-5-------5-5-5-7-5------------------------|
|-8-7-5-3---8-7-5-3------------------8-5-8-----------8-888------------------|
|---------------------------------------------------------------------------|
|---------------------------------------------------------------------------|
|---------------------------------------------------------------------------|
|---------------------------------------------------------------------------|

Regards,
vdm.sly@mail.ccim.be
Tap to rate this tab
# A B C D E F G H I J K L M N O P Q R S T U V W X Y Z