Song name
# A B C D E F G H I J K L M N O P Q R S T U V W X Y Z

Mccartney Paul - Little Willow tab

Intro                              Right before chorus
9X                                    1x
/----------2-----------3------/----------2---------2---/
/--------3-----------5--------/--------3---------1-----/
/------2-----------4----------/------2---------2-------/
/----0-----------0------------/----0---------0---------/
/-----------------------------/------------------------/
/-----------------------------/------------------------/

    G          A          D       Asus4
  --3--      --0--      --2--     --0--
  --3--      --2--      --3--     --3--
  --0--      --2--      --2--     --2--
  --0--      --2--      --0--     --2--
  --2--      --0--      --0--     --0--
  --3--      --0--      --0--     --0--


Chorus

G 2X, A 4X, D 2X, G 2X, A 3X, Asus4 1X

Intro 15X

Right before chorus 1X

Chorus 1X

Intro 15X


End with a D

Tap to rate this tab
# A B C D E F G H I J K L M N O P Q R S T U V W X Y Z