Song name
# A B C D E F G H I J K L M N O P Q R S T U V W X Y Z

Mccartney Paul - Maybe Im Amazed tab

  Begins at 1:10
e |-----------------------------------------------------------|
B |-----------------------------------------------------------|
G |---------10-12-10-12b13--12--10p7-----9--9b10rb9--7--------|
D |-/12--12--------------------------10-----------------------| 
A |-----------------------------------------------------------|
E |-----------------------------------------------------------|

e |-----------------------------------------------------------|
B |-----------------------------------------------------------|
G |-10-12-10-12b13--12--10p7------9p7-------------------------|
D |---------------------------10------10----------------------|
A |-----------------------------------------------------------|
E |-----------------------------------------------------------|

e |------------------------------------------------------------------------|
B |------------------------------------------------------------------------|
G |---------10-12-10-12b13--12--10/7-----9-10-9-7--------------------------|
D |-/12--12--------------------------10------------9/7-----9--9b10rb9--7---|
A |----------------------------------------------------10------------------|
E |------------------------------------------------------------------------|

e |------------------------------------------------------------------------|
B |-------------------------------------------------------------11/12--9---|
G |-----7-10--9--9b10rb9--7----------------------------10/11--9------------|
D |-7/9----------------------9p7---7-------------11-9----------------------|
A |------------------------------9----------11-9---------------------------|
E |------------------------------------12-9--------------------------------|


  Starts at 3:03
e |------------------------------------------------------------------------|
B |------------------------------------------------------------------------|
G |------10-12-10-12b13--12--10p7-----9--9b10rb9--7------------------------|
D |-/12---------------------------10-----------------9/7-------------------|
A |-------------------------------------------------------10---------------|
E |------------------------------------------------------------------------|

e |------------------------------------------------------------------------|
B |------------------------------------------------------------------------|
G |------10-12-10-12b13--12--10/7-----9b10--9-7---9b10--9-7---10-9-7-------|
D |-/12---------------------------10---------------------------------------|
A |------------------------------------------------------------------------|
E |------------------------------------------------------------------------|

e |------------------------------------------------------------------------|
B |------------------------------------------------------------------------|
G |---------10-12-10-12b13--12--10p7-----9-10-9-7--------------------------|
D |-/12--12--------------------------10------------9/7-----9--9b10rb9--7---|
A |----------------------------------------------------10------------------|
E |------------------------------------------------------------------------|

e |------------------------------------------------------------------------|
B |------------------------------------------------------------------------|
G |-----7-10--9--9b10rb9--7----------------------------------7-7-7---7-7-7-|
D |-7/9----------------------9-7-9-7-------------9-9-9-9-9---7-7-7---7-7-7-|
A |----------------------------------9-9-----9-9-9-9-9-9-9-----------------|
E |------------------------------------------------------------------------|
Tap to rate this tab
# A B C D E F G H I J K L M N O P Q R S T U V W X Y Z