Song name
# A B C D E F G H I J K L M N O P Q R S T U V W X Y Z

Mccoys - Hang On Sloopy tab

drums first, then bass comes in


VERSES
e|--------------------------------|
B|--------------------------------|
G|---------5---5-7---7---7-3------|
D|---5---5-3---5-7---7---7-3---7--|
A|---5---5-3---3-5---5---5-5---7--|
E|---3---3---------------------5--|                                then starts all over.
repeat as many times as neccessary.


CHORUS
e|------------------------------|
B|------------------------------|
G|-----------5-5----7-7-7----5--|
D|---5-5-5---5-5----7-7-7----5--|
A|---5-5-5---3-3----5-5-5----3--|
E|---3-3-3----------------------|
                    repeat this until as many times as neccessary then return to verse.
do this until solo--|

|
Tap to rate this tab
 
# A B C D E F G H I J K L M N O P Q R S T U V W X Y Z