Song name
# A B C D E F G H I J K L M N O P Q R S T U V W X Y Z

Mcfly - Home Is Where The Heart Is tab

McFly 
Home Is Where The Heart Is
Transcribed by Soch Hean
Tuning: Standard


Intro:
|-----------------------------0-----------0--------------------------------------------|
|-----3--------------3--3---3---3---3---3---3-------------------------3----------------|
|-----------2--------2----2-------2---2-------2---------0-----0-----0---0--------------|
|-3p0---------3b3.5--0--------------------------------2-----0-----0-------0-----3b3.5--|
|-------3p0-------------------------------------0-2-3-----2-----1-----------3p0--------|
|--------------------------------------------------------------------------------------|

Verse:
|----------0-----------0-----------------0-----------0---------------------------------|
|-3--3---3---3---3---3---3---1--3--3---3---3---3---3---3-------------------------3-----|
|-2----2-------2---2-------2-0--2----2-------2---2-------2---------0-----0-----0---0---|
|-0--------------------------2--0--------------------------------2-----0-----0-------0-|
|----------------------------3-----------------------------0-2-3-----2-----1-----------|
|--------------------------------------------------------------------------------------|

|---------------------0-----------0------------|
|-1----------3--3---3---3---3---3---3---1------|
|-0-0--------2----2-------2---2-------2-0------|
|-2-0--------0--------------------------2------|
|-3-0-----------------------------------3------|
|-----1b1.5------------------------------------|

|----------0-----------0-----------------0-----------0---------------------------------|
|-3--3---3---3---3---3---3---1--3--3---3---3---3---3---3-------------------------3-----|
|-2----2-------2---2-------2-0--2----2-------2---2-------2---------0-----0-----0---0---|
|-0--------------------------2--0--------------------------------2-----0-----0-------0-|
|----------------------------3-----------------------------0-2-3-----2-----1-----------|
|--------------------------------------------------------------------------------------|

|---------------------0------------------------2------|
|-1----------3--3---3---3-------3--------------3------|
|-0-0--------2----2-------2-----------2--------2------|
|-2-0--------0--------------3p0---------3b3.5--0------|
|-3-0-----------------------------3p0-----------------|
|-----1b1.5-------------------------------------------|


Verse:
D                            C
I'm a lover I'm not a fighter,
D                                     C G Bb             D
Hold me close and I'll take you higher than you've ever been,
D                                    C
Raise your hands and lay down your weapons,
D                                 C G Bb
We could turn this around in seconds flat,
         D
If we believe.


Chorus:
D                  Cadd9
Home is where the heart is,
                G
It's where we started,
           D
Where we belong, singing.
D                  Cadd9
Home is where the heart is,
                G
It's where we started,
           D
Where we belong.


Verse:
D                            C
Light a fire and write a sonnet,
D                                     C G Bb                   D
Pin your hopes and your dreams upon it now, come and sing with us
D                                   C
Calling out to your children's children,
D                                   C G Bb
Let there be love and let them scream it loud,
                    D
Before we bite the dust.


Chorus:
D
Oh, come on
D                  Cadd9
Home is where the heart is,
                G
It's where we started,
           D
Where we belong, singing.
D                  Cadd9
Home is where the heart is,
                G
It's where we started,
           D
Where we belong.


Bridge:
Em
In these troubled days of anger,
G
We're afraid of every stranger,
A
But today we're changing history,
G
It's OK to sing it with me



Now's your chance think of your lovers,
We are all sisters and brothers.
Now's your chance think of your lovers,
We are all sisters and brothers.
Now's your chance think of your lovers,
We are all sisters and brothers.


Guitar Solo: (2:29)
|-----------------------------------------------17-------------------------------------|
|-----15-17-17b19-17b19r-15-15~-----15-17-17b19----17b19r-15-15~-----------------------|
|-/16----------------------------16------------------------------------7-----7-----7---|
|------------------------------------------------------------------7h9---7h9---7h9-----|
|--------------------------------------------------------------------------------------|
|--------------------------------------------------------------------------------------|

|--------------------------------------------------------------------------------------|
|---------------10-------------17b19rp15----15-17b19rp15----15-17b19rp15-----20b22rp18-|
|-7-9-9b11r-7------9b11r-7~--------------17--------------17--------------17------------|
|-------------9------------------------------------------------------------------------|
|--------------------------------------------------------------------------------------|
|--------------------------------------------------------------------------------------|

|--------------------------------------------------------------------------------------|
|----18----18h20~---10-12-12b14rp10----10----------------------------------------------|
|-19----19--------------------------12----10-----10h12-10------------------------------|
|--------------------------------------------12~----------12-10h12~-10----10-----------|
|----------------------------------------------------------------------12----12s10--8--|
|--------------------------------------------------------------------------------------|

|------------------------------------|
|------------------------------------|
|------------------------------------|
|-----------------/12-12-----12-12~--|
|----10----8s9~-----------12---------|
|-10----10---------------------------|



Heavy Riff: (3:08)
|---------------------------------------|
|---------------------------------------|
|---------------------------------------|
|---5-7---8-7---5-7-----5---------------|
|-5-----5-----5-----5-8---5-7-8-7-------|
|---------------------------------------| (x4)


[Repeat Chorus]



Outro:
|--------------------------------------------------|
|---------------------------------------3----------|
|-----0-----0---------------------------2----------|
|---2-----0-----------------------------0----------|
|-3-----2-----1--------------3p0-------------------|
|--------------------------------1b1.5-------------|


Legend:
p - pulloff
h - hammeron
s - slide
b - bend
r - release
Tap to rate this tab
 
# A B C D E F G H I J K L M N O P Q R S T U V W X Y Z