Song name
# A B C D E F G H I J K L M N O P Q R S T U V W X Y Z

Mclean Don - Circus Song tab

this is that cool assed circus song you here everywhere.
Mostly at the circus though.
And you will not stop playing it because its annoying and catchy.


|-9-8-7h8p7-6-5-----------------------------------------------------|
|---------------8-7-8---9-8-7h8p7-6-5---------7-5-5-4-5-7-5-5-4-5---|
|-------------------------------------8-7-8-------------------------|
|-------------------------------------------------------------------|
|-------------------------------------------------------------------|
|-------------------------------------------------------------------|

|-----------------6-7-8-9-8-7---------------------------------------|
|---------6-7-8-9---------------------------------------------------|
|-6-7-8-9-----------------------------------------------------------|
|-------------------------------------------------------------------|
|-------------------------------------------------------------------|
|-------------------------------------------------------------------|


Thats it. its easy, its annoying, but its fun.
have a good one.
Tap to rate this tab
 
# A B C D E F G H I J K L M N O P Q R S T U V W X Y Z