Song name
# A B C D E F G H I J K L M N O P Q R S T U V W X Y Z

Me First And The Gimme Gimmes - Somewhere Over The Rainbow tab

TITLE:       somewhere over the rainbow
ARTIST:      me first and the gimme gimmes
ALBUM:       are a drag
TABBED BY:   silentrocker21
E-MAIL:      lorenz10_15@yahoo.com

hope you like my tab, lyrics at the end of the tab... nice song, juzt do the strumming 
the way the band did it...
add me in friendster/myspace: lorenz10_15@yahoo.com
thankz...
(juzt msg me if u want me to tab a new rock song that you like...\m/\m/)

GUITAR TUNING : STANDARD

ChOrUs:
e|-------------------------------------------|
B|-------------------------------------------|
G|-------------------------------------------|
D|---5---4---5---5---5---5---9---7---7---5---|
A|---5---2---3---5---3---5---7---7---5---5---|
E|---3-----------3-------3-------5-------3---|

VeRsE:
e|-----------------------------------------------------|
B|-----------------------------------------------------|
G|-----------------------------------------------------|
D|---5----5----------7----7----------5----5--------7---|
A|---5----5----------7----7----------5----3--------5---|
E|---3----3----------5----5----------3----3------------|
         (PM)            (PM)            (PM)
         (11x)           (11x)           (11x)

e|-----------------------------------------------------|
B|-----------------------------------------------------|
G|-----------------------------------------------------|
D|---5----5----------7----7----------7----7--------7---|
A|---5----5----------7----7----------7----7--------5---|
E|---3----3----------5----5----------5----5------------|
         (PM)            (PM)            (PM)
         (11x)           (11x)           (11x)


repeat chorus...


aDlIb:
e|------------------------------------------------------------------|
B|--------------------------------------------------11-11^13v11-----|
G|----7---7---7----7~-5-7-5-7-5-7/12~-11-----11-12~-------------12--|
D|--9---9---9---9~-----------------------12~------------------------|
A|------------------------------------------------------------------|
E|------------------------------------------------------------------|

CoDa:
e|--------------------------------------------------------------|
B|--------------------------------------------------------------|
G|------------------------------12------------------------------|
D|---7---7---5---5---7---7---------12---------------------------|
A|---5---4---3---2---7---5------------12------------------------|
E|-------------------5-------------------12~--------------------|


Key:
T   - Tap (Strings)
PM  - Palm Muting
/   - Slide Up
\   - Slide Down
h   - Hammer-on
p   - Pull-off
~   - Let the note ringing
s   - Strum softly
c   - Continue and Continuation
^   - Bend
*   - Harmonics

<---------------lyrics--------------->
chorus:
somewhere over the rainbow, way up high
there's a land that i heard of once in a lullaby

somewhere over the rainbow, skies are blue
and the dreams that you dare to dream
really do come true

verse:
someday i'll wish upon a star
and wake up where the clouds are far behind me
where troubles melt like lemon drops
a way above the chimney tops
that's where you'll find me

chorus:
somewhere over the rainbow, blue birds fly
birds fly over the rainbow, why then oh why can't i

coda:
if happy little blue birds fly across the rainbow
why! oh why can't i?
Tap to rate this tab
 
# A B C D E F G H I J K L M N O P Q R S T U V W X Y Z