Song name
# A B C D E F G H I J K L M N O P Q R S T U V W X Y Z

Meat Puppets - Lake Of Fire tab

Help us improve GuitareTab! Take a short survey!
-------------------------------------------------------------------------------
			     Lake of Fire - Meat Puppets
-------------------------------------------------------------------------------
Tabbed by: David kadour
Email:david-kadour@web.de

Tuning:normal tuning

This is Lake of Fire by the Meat Puppets .This song is really easy,good for beginners . 
the solo isnīt as easy as the rest . Enjoy it!

Intro :
Guitar 1


e|--------------------------|------------------------------------------------|
B|---2-------2---2----4~-2--|---2-------2-4-4-44-----------------------------|
G|---2-------2---2----4~-2--|---2-------2-4-4-44-----------------------------|
D|-4-4-4\2-2-2-4-4-44-------|-4-4-4\2-2-2-4-4-44-2-20-4----------------------|
A|-4-4-4\2-2-0-4-4-44-------|-4-4-4\2-2-0-2-2-22-2-20-4----------------------|
E|-2-2-2\0-0---2-2-22-------|-2-2-2\0-0----------0-00-2----------------------|

e|---------------------------------------------------------------------------|
B|-----------------10-10-10-10-10\-5-5-5-7\----------------------------------|
G|------------2---9--9--9--9--9---4-4-4--6\----------------------------------|
D|------------2-4------------------------------------------------------------|
A|-4444444\2--0-4------------------------------------------------------------|
E|-2222222\0----2------------------------------------------------------------|

Guitar 2

e|----------------------------|----------------------------------------------|
B|----------------------------|-----------2-4-4-44---------------------------|
G|-----------2--------4-4-42--|-----------2-4-4-44---------------------------|
D|-4-4-4-2-2-2-4-4-44-4-4-42--|-4-4-4-2-2-2-4-4-44-2-20-4--------------------|
A|-4-4-4-2-2-0-4-4-44-2-2-20--|-4-4-4-2-2-0-2-2-22-2-20-4--------------------|
E|-2-2-2-0-0---2-2-22---------|-2-2-2-0-0----------0-00-2--------------------|

e|---------------------------------------------------------------------------|
B|---------------------------------------------------------------------------|
G|---------2------------2----------------------------------------------------|
D|-4-4-4-2-2-4--4-4-4-2--2-4-------------------------------------------------|
A|-4-4-4-2-0-4--4-4-4-2--0-4-------------------------------------------------|
E|-2-2-2-0---2--2-2-2-0----2-------------------------------------------------|

Verse: Guitar 1

e|----------------------------|----------------------------------------------|
B|----------------------------|-----------2-4-4-44---------------------------|
G|-----------2--------4-4-42--|-----------2-4-4-44---------------------------|
D|-4-4-4-2-2-2-4-4-44-4-4-42--|-4-4-4-2-2-2-4-4-44-2-20-4--------------------|
A|-4-4-4-2-2-0-4-4-44-2-2-20--|-4-4-4-2-2-0-2-2-22-2-20-4--------------------|
E|-2-2-2-0-0---2-2-22---------|-2-2-2-0-0----------0-00-2--------------------|

e|---------------------------------------------------------------------------|
B|-----------------10-10-10-10-10\-5-5-5-7\----------------------------------|
G|------------2---9--9--9--9--9---4-4-4--6\----------------------------------|
D|------------2-4------------------------------------------------------------|
A|-4444444\2--0-4------------------------------------------------------------|
E|-2222222\0----2------------------------------------------------------------|

Guitar 2

e|----------------------------|----------------------------------------------|
B|----------------------------|-----------2-4-4-44---------------------------|
G|-----------2--------4-4-42--|-----------2-4-4-44---------------------------|
D|-4-4-4-2-2-2-4-4-44-4-4-42--|-4-4-4-2-2-2-4-4-44-2-20-4--------------------|
A|-4-4-4-2-2-0-4-4-44-2-2-20--|-4-4-4-2-2-0-2-2-22-2-20-4--------------------|
E|-2-2-2-0-0---2-2-22---------|-2-2-2-0-0----------0-00-2--------------------|

e|---------------------------------------------------------------------------|
B|---------------------------------------------------------------------------|
G|---------2------------2----------------------------------------------------|
D|-4-4-4-2-2-4--4-4-4-2--2-4-------------------------------------------------|
A|-4-4-4-2-0-4--4-4-4-2--0-4-------------------------------------------------|
E|-2-2-2-0---2--2-2-2-0----2-------------------------------------------------|

Chorus : guitar 1 & 2 play the same riff but guitar 1 with picking

e|--------------------------------------------------------------------------|
B|-5-55-55-0-00-00-5-55-55--------------------------------------------------|
G|-6-66-66-2-22-22-6-66-66-5-55-55------------------------------------------|
D|-6-66-66-2-22-22-6-66-66-6-66-66------------------------------------------|
A|-4-44-44-0-00-00-4-44-44-6-66-66------------------------------------------|
E|-------------------------4-44-44------------------------------------------|

e|--------------------------------------------------------------------------|
B|-5-55-55-0-00-00-2-22-22-5555-5454----------------------------------------|
G|-6-66-66-2-22-22-4-44-44-6666-----6---------------------------------------|
D|-6-66-66-2-22-22-4-44-44-6666------6--------------------------------------|
A|-4-44-44-0-00-00-2-22-22-4444---------------------------------------------|
E|--------------------------------------------------------------------------|

Solo : Guitar 1 (guitar2 plays the same as in the verse )

e|---------------------------------------------------------------------------|
B|-----7-5^7^-5-------------------2^------5----------------------------------|
G|-5h6--6-------42----------------2^---4/6-64-2------------------------------|
D|----------------44------------24--4~---------4-4-2--2-2--------------------|
A|------------------4320----0234--------------------4--4-420-----------------|
E|-----------------------2-2--------------------------------2-2-2------------|

e|---------------------------------------------------------------------------|
B|----5------7-5----------2^---2^--2^----------------------------------------|
G|-4/6--6\4/6-6-4624------2^---2^--2^----------------------------------------|
D|------------------2-x-4---44~--4~-42-----------224-------------------------|
A|------------------------------------4320---0234----2-0---------------------|
E|----------------------------------------2-2------------2-------------------|

| /  slide up
| \  slide down
| h  hammer-on
| p  pull-off
| ~  vibrato
| +  harmonic
| x  Mute note
===============================================================================
Related for Lake Of Fire tab