Meat Puppets - Climbing tab

-------------------------------------------------------------------------------
                             climbing - meat puppets
-------------------------------------------------------------------------------
Tabbed by: joshua st.louis
E-mail: pukeandpiss12@yahoo.com

Tuning: standard


G       C     D         G
climb, climb, i always climb
        G          C                  D             G
out of bed in the morning and on a mountain made of sand
    G    C      D         G
and i know this doesn't rhyme
        G               C         D             G
but the clutter on the table is getting out of hand

C                       Am
i know you tried to see me through
     Dm                F
but, honey, i'm still having trouble
                    G   Bm
finding out what's you


time, time, it's so sublime
how they say it's non-existent but it's playing with my mind
phone calls don't cost a dime
in the caverns of our feelings where the sun will never shine

i know you tried to see me through
but, honey, i'm still having trouble
finding out what's you

mine, mine, which things are mine
oh, i thought i saw a few before i found out i was blind
i think i see a sign
and it's saying where to go and when i get there what i"ll find

i know you tried to see me through
but, honey, i'm still having trouble
finding out what's you


SOLO


INTRO:


e|-----------------|
b|-4/6-4-2---------|
G|-5/7-5-3---------|
D|-----------------|
A|-----------------|
E|-----------------|


e|---------------------------------------------------------------------------|
b|---------------------------------------------------------------------------|
G|---------------------------------------------------------------------------|
D|---------------------------------------------------------------------------|
A|-9h10-12-------------------------------------------------------------------|
E|---------10----------------------------------------------------------------|

VERSE (these are several different riffs cris kirkwood plays over the course of the song,
       in no particular order)


e|---------------------------------------------------------------------------|
b|---------------------------------------------------------------------------|
G|----------------------4----------------------------------------------------|
D|-------2----2-5---4-7-----5-3-2-0------------------------------------------|
A|---2-5----3-----5------------------------2-3-3--5-5h7p5--------------------|
E|-3----------------------------------3-3------------------3-3---------------|

e|---------------------------------------------------------------------------|
b|---------------------------------------------------------------------------|
G|---------------------------------------------------------------------------|
D|------------------5-5---------------------5-5------------------------------|
A|-----2-3-3--5-5-7------------3-3--5-4-5-7----------------------------------|
E|-3-3-------------------3-3/2-----------------------------------------------|

e|----------------------------------------------------------------------------------------|
b|----------------------------------------------------------------------------------------|
G|----------------------------------------------------------------------------------------|
D|-5-3-2-0----------4------------------------------------------------------------5-3-2-0--|
A|---------3-3--5-5--5-------------2-3--2-3-5-5/7/5-------0/2--3-2-3-5--5-7-5-4-----------|
E|---------------------3-3----3-3-------------------3---3---------------------------------|

CHORUS


e|-------------------------------------------------------------------------|
b|-------------------------------------------------------------------------|
G|-------------------------------------------------------------------------|
D|-----------------------0-0-0---------3-3-3--5-5-5---------------4-2-0----|
A|-3-3-3-3-3--0-00-00-00-----------------------------2-2-2-2-2-2--------4--|
E|------------------------------1-1-1--------------------------------------|

SOLO: ( the lead seems to be based on this scale)

e|-10-8-7--------------------------------------------|
b|---------10-8-7------------------------------------|
G|-----------------9-7-------------------------------|
D|----------------------10-9-7-----------------------|
A|------------------------------10-9-7---------------|
E|--------------------------------------10-8-7-------|

| /  slide up
| \  slide down
| H  hammer-on
| p  pull-off
| ~  vibrato
| +  harmonic
| x  Mute note
===============================================================================
Tap to rate this tab
 
# A B C D E F G H I J K L M N O P Q R S T U V W X Y Z