Song name
# A B C D E F G H I J K L M N O P Q R S T U V W X Y Z

Meg And Dia - Halloween tab

This is my first tab I've ever done :)
I noticed there were no correct tabs for this, so I decided to give it a try.
It was tabbed to match the official acoustic version which you can find here:
http://www.youtube.com/watch?v=GaRdw2bPwWQ
^^Listen to it to get the strum pattern.

(Two times for intro, and two times for verse)
e|--6----2----2----4----| 
B|--7----2----2----4----|
G|--8----4----2----6----|  x4
D|--8----4----4----6----|
A|--6----2----4----4----|
E|--6----2----2----4----|

I've decided I'm done, don't care to move on;
Not used to losing someone.
If I lost fate, was no choice I made;
Except the excuse of no one.

PRECHORUS
e|--2----4----6----4--|--2----4----6----4----2----4|
B|--2----4----7----4--|--2----4----6----4----2----4|
G|--4----6----8----6--|--4----6----8----6----4----6|
D|--4----6----8----6--|--4----6----8----6----4----6|
A|--2----4----6----4--|--2----4----6----4----2----4|
E|--2----4----6----4--|--2----4----6----4----2----4|

Your careful silence can't replace your stupid smile
Casseroles and handshakes can't restore
Twelve damn years of ours
You stole me

CHORUS
e|--2----6----7----6-- --2----2----4----|
B|--2----6----7----7-- --2----2----4----|
G|--2----6----7----6-- --4----2----6----| x2
D|--4----8----9----8-- --4----4----6----|
A|--4----8----9----9-- --2----4----4----|
E|--2----6----7----6-- --2----2----4----|

I don't dare to try again, they said time will heal,
And time will mend, And on 
Halloween the last time you left,
If I knew you were never coming back, I would've 

Held on to that last day
Instead of "here's your keys", the last thing I'd say 
Would be "I love you", just in case
I'm only myself when I'm with you, baby

VERSE
e|--6----2----2----4----| 
B|--7----2----2----4----|
G|--8----4----2----6----|  x4
D|--8----4----4----6----|
A|--6----2----4----4----|
E|--6----2----2----4----|

(I'll be with you someday)

Take down my mirror, my pictures of costumes and you
I put aside posters and books and aged fortunes
And all this reminds me of you

PRECHORUS
e|--2----4----6----4----2--|--2----4----6----4----2----4|
B|--2----4----7----4----2--|--2----4----6----4----2----4|
G|--4----6----8----6----4--|--4----6----8----6----4----6|
D|--4----6----8----6----4--|--4----6----8----6----4----6|
A|--2----4----6----4----2--|--2----4----6----4----2----4|
E|--2----4----6----4----2--|--2----4----6----4----2----4|

With a pat on the back they say "honey, it's time to move on
I'm sure we can find you a hobby now that he's gone"
You stole me


CHORUS
e|--2----6----7----6----2----2----4--|
B|--2----6----7----7----2----2----4--|
G|--2----6----7----6----4----2----6--| x2
D|--4----8----9----8----4----4----6--|
A|--4----8----9----9----2----4----4--|
E|--2----6----7----6----2----2----4--|

I don't dare to try again, they said time will heal,
And time will mend, And on 
Halloween the last time you left,
If I knew you were never coming back, I would've 

Held on to that last day
Instead of "here's your keys", the last thing I'd say 
Would be "I love you", just in case
I'm only myself when I'm with you, baby

BRIDGE
e|--6----4----2----2--|
B|--7----4----2----2--|
G|--8----6----4----2--| x2
D|--8----6----4----4--|
A|--6----4----2----4--|
E|--6----4----2----2--|

They don't understand
We were like this since the first time we met
We were born holding hands
Give me flowers and cards, I'll smile all they want
If they give me what I want
Give me what I want!


CHORUS
e|--2----6----7----6-- --2----2----4----|
B|--2----6----7----7-- --2----2----4----|
G|--2----6----7----6-- --4----2----6----| x2
D|--4----8----9----8-- --4----4----6----|
A|--4----8----9----9-- --2----4----4----|
E|--2----6----7----6-- --2----2----4----|

I don't dare to try again, they said time will heal,
And time will mend, And on 
Halloween the last time you left,
If I knew you were never coming back, I would've 

Held on to that last day
Instead of "here's your keys", the last thing I'd say 
Would be "I love you", just in case
I'm only myself when I'm with you, baby
Tap to rate this tab
# A B C D E F G H I J K L M N O P Q R S T U V W X Y Z