Song name
# A B C D E F G H I J K L M N O P Q R S T U V W X Y Z

Megadeth - Blood Of Heroes tab

Help us improve GuitareTab! Take a short survey!
#----------------------------------PLEASE NOTE---------------------------------#
#This file is the author's own work and represents their interpretation of the #
#song. You may only use this file for private study, scholarship, or research. #
#------------------------------------------------------------------------------#

BLOOD OF HEROES
As recorded by Megadeth
(From the 1994 Album YOUTHANASIA)

Transcribed by James Godbold
	

Words and Music by Dave Mustaine

A5
5 7 7 x x x
	
Bb5
6 8 8 x x x
	
G5
3 5 5 x x x
	
F5
1 3 3 x x x

E5
0 2 2 x x x
	
D5
x 5 7 7 x x
	
E5VII
x 7 9 9 x x
	
F5VIII
x 8 10 10 x x

Amadd9
x 0 7 5 0 x

Gtr I (Eb Ab Db Gb Bb Eb) - 'Untitled'
Gtr II (Eb Ab Db Gb Bb Eb) - 'Untitled'
Gtr III (Eb Ab Db Gb Bb Eb) - 'Untitled'
Gtr IV (Eb Ab Db Gb Bb Eb) - 'Untitled'
Gtr V (Eb Ab Db Gb Bb Eb) - 'Untitled'

 Intro
  Amadd9                             Aadd9/C
 4/4
  Gtr I
  E E E E E Q.     E E E E E E E E   E E E E E Q.     E E E E E E E E
|----------------|-----------------|----------------|------------------|
|-------0--------|-------0-----0---|-------0--------|-------0-----0----|
|-----5---5------|-----5---5-----5-|-----5---5------|-----5---5-----5--|
|---7-------7----|---7-------7-----|---7-------7----|---7-------7------|
|-0--------------|-0---------------|-0--------------|-0----------------|
|----------------|-----------------|----------------|------------------|
  W                W                 W                W


  Amadd9/F                           Amadd9/E
                                                      Gtrs II, III
  W                W                 W                H       E Q.
                                                                |
                                                                o

  E E E E E Q.     E E E E E E E E   E E E E E Q.     E E E E E E  E E
|----------------|-----------------|----------------|------------------||
|-------0--------|-------0-----0---|-------0--------|-------0------0---||
|-----5---5------|-----5---5-----5-|-----5---5------|-----5---5------5-||
|---7-------7----|---7-------7-----|---7-------7----|---7-------7------||
|-0--------------|-0---------------|-0--------------|-0----------------||
|----------------|-----------------|----------------|------------------||
  W                W                 W                W


    A5 N.C.(C5)  (D5)N.C.  F5N.C.  G5  A5 N.C.(C5)  (D5)N.C.  F5N.D5N.C.
    Gtr II
       PM|   PM|     PM--|   PM--|        PM|   PM|     PM--|   PM  PM|
    Q  E E E E E E   E E E E E E E E   Q  E E E E E E   E E E E E E E E
||-----------------|-----------------|----------------|-------------------||
||o----------------|-----------------|----------------|------------------o||
||--2--------------|-----------------|-2--------------|-----------2-------||
||--2--------------|-----------------|-2--------------|-----------0-------||
||o-0------3-----5-|-------3-------5-|-0------3-----5-|-------3----------o||
||-----3-1---1-0---|-0-0-0-1-0-0-0-3-|----3-1---1-0---|-0-0-0-1-0---3-4---||
|
|   Gtr III
|      PM|   PM|     PM--|   PM--|        PM|   PM|     PM--|   PM  PM|
|   Q  E E E E E E   E E E E E E E E   Q  E E E E E E   E E E E E E E E
||-----------------|-----------------|----------------|-------------------||
||o----------------|-----------------|----------------|------------------o||
||--2--------------|-----------------|-2--------------|-----------2-------||
||--2--------------|-----------------|-2--------------|-----------0-------||
||o-0------3-----5-|-------3-------5-|-0------3-----5-|-------3----------o||
||-----3-1---1-0---|-0-0-0-1-0-0-0-3-|----3-1---1-0---|-0-0-0-1-0---3-4---||


 Verse
  A5 N.C.(C5)  (D5)N.C.  F5N.C.  G5  A5 N.C.(C5)  (D5)N.C.  F5N.D5N.C.
     PM|   PM|     PM--|   PM--|        PM|   PM|     PM--|   PM  PM|
  Q  E E E E E E   E E E E E E E E   Q  E E E E E E   E E E E E E E E
|----------------|-----------------|----------------|-----------------|
|----------------|-----------------|----------------|-----------------|
|-2--------------|-----------------|-2--------------|-----------2-----|
|-2--------------|-----------------|-2--------------|-----------0-----|
|-0------3-----5-|-------3-------5-|-0------3-----5-|-------3---------|
|----3-1---1-0---|-0-0-0-1-0-0-0-3-|----3-1---1-0---|-0-0-0-1-0---3-4-|
|
|    PM|   PM|     PM--|   PM--|        PM|   PM|     PM--|   PM  PM|
| Q  E E E E E E   E E E E E E E E   Q  E E E E E E   E E E E E E E E
|----------------|-----------------|----------------|-----------------|
|----------------|-----------------|----------------|-----------------|
|-2--------------|-----------------|-2--------------|-----------2-----|
|-2--------------|-----------------|-2--------------|-----------0-----|
|-0------3-----5-|-------3-------5-|-0------3-----5-|-------3---------|
|----3-1---1-0---|-0-0-0-1-0-0-0-3-|----3-1---1-0---|-0-0-0-1-0---3-4-|


  A5 N.C.(C5)  (D5)N.C.  F5N.C.  G5  A5 N.C.(C5)  (D5)N.C.  F5N.D5N.C.
     PM|   PM|     PM--|   PM--|        PM|   PM|     PM--|   PM  PM|
  Q  E E E E E E   E E E E E E E E   Q  E E E E E E   E E E E E E E E
|----------------|-----------------|----------------|-----------------|
|----------------|-----------------|----------------|-----------------|
|-2--------------|-----------------|-2--------------|-----------2-----|
|-2--------------|-----------------|-2--------------|-----------0-----|
|-0------3-----5-|-------3-------5-|-0------3-----5-|-------3---------|
|----3-1---1-0---|-0-0-0-1-0-0-0-3-|----3-1---1-0---|-0-0-0-1-0---3-4-|
|
|    PM|   PM|     PM--|   PM--|        PM|   PM|     PM--|   PM  PM|
| Q  E E E E E E   E E E E E E E E   Q  E E E E E E   E E E E E E E E
|----------------|-----------------|----------------|-----------------|
|----------------|-----------------|----------------|-----------------|
|-2--------------|-----------------|-2--------------|-----------2-----|
|-2--------------|-----------------|-2--------------|-----------0-----|
|-0------3-----5-|-------3-------5-|-0------3-----5-|-------3---------|
|----3-1---1-0---|-0-0-0-1-0-0-0-3-|----3-1---1-0---|-0-0-0-1-0---3-4-|


 Verse
  $
  A5 N.C.(C5)  (D5)N.C.  F5N.C.  G5  A5 N.C.(C5)  (D5)N.C.  F5N.D5N.C.
     PM|   PM|     PM--|   PM--|        PM|   PM|     PM--|   PM  PM|
  Q  E E E E E E   E E E E E E E E   Q  E E E E E E   E E E E E E E E
|----------------|-----------------|----------------|-----------------|
|----------------|-----------------|----------------|-----------------|
|-2--------------|-----------------|-2--------------|-----------2-----|
|-2--------------|-----------------|-2--------------|-----------0-----|
|-0------3-----5-|-------3-------5-|-0------3-----5-|-------3---------|
|----3-1---1-0---|-0-0-0-1-0-0-0-3-|----3-1---1-0---|-0-0-0-1-0---3-4-|
|
|    PM|   PM|     PM--|   PM--|        PM|   PM|     PM--|   PM  PM|
| Q  E E E E E E   E E E E E E E E   Q  E E E E E E   E E E E E E E E
|----------------|-----------------|----------------|-----------------|
|----------------|-----------------|----------------|-----------------|
|-2--------------|-----------------|-2--------------|-----------2-----|
|-2--------------|-----------------|-2--------------|-----------0-----|
|-0------3-----5-|-------3-------5-|-0------3-----5-|-------3---------|
|----3-1---1-0---|-0-0-0-1-0-0-0-3-|----3-1---1-0---|-0-0-0-1-0---3-4-|


  A5 N.C.(C5)  (D5)N.C.  F5N.C.  G5  A5 N.C.(C5)  (D5)N.C.  F5N.D5N.C.
     PM|   PM|     PM--|   PM--|        PM|   PM|     PM--|   PM  PM|
  Q  E E E E E E   E E E E E E E E   Q  E E E E E E   E E E E E E E E
|----------------|-----------------|----------------|-----------------||
|----------------|-----------------|----------------|-----------------||
|-2--------------|-----------------|-2--------------|-----------2-----||
|-2--------------|-----------------|-2--------------|-----------0-----||
|-0------3-----5-|-------3-------5-|-0------3-----5-|-------3---0-----||
|----3-1---1-0---|-0-0-0-1-0-0-0-3-|----3-1---1-0---|-0-0-0-1-0---0-3-||
|
|    PM|   PM|     PM--|   PM--|        PM|   PM|     PM--|   PM  PM|
| Q  E E E E E E   E E E E E E E E   Q  E E E E E E   E E E E E E E E
|----------------|-----------------|----------------|-----------------||
|----------------|-----------------|----------------|-----------------||
|-2--------------|-----------------|-2--------------|-----------2-----||
|-2--------------|-----------------|-2--------------|-----------0-----||
|-0------3-----5-|-------3-------5-|-0------3-----5-|-------3---0-----||
|----3-1---1-0---|-0-0-0-1-0-0-0-3-|----3-1---1-0---|-0-0-0-1-0---0-3-||


 Pre-Chorus
  A5 N.C.          (F)N.C.          (D) N.C.                 (E5N.C.
  Gtr II
                   ~
                                                   |-3--|
  Q  E E E E E E   Q  E E E E E E    Q  E E E S S +E  E E    Q  E E E E E E
|----------------|----------------|------------------------|----------------|
|----------------|----------------|---------5--------------|----------------|
|-2--------------|----------------|-------------7-(7)------|----------------|
|-2------2-------|--------2-------|-----6-7-----------7s0--|--------2-0-----|
|-0--2-3---3-2-0-|----2-3---3-2-0-|-/5---------------------|----2-3-----3-2-|
|----------------|-1--------------|------------------------|-0--------------|
|
| Gtr III
|                  ~
|                                                  |-3--|
| Q  E E E E E E   Q  E E E E E E    Q  E E E S S +E  E E    Q  E E E E E E
|----------------|----------------|------------------------|----------------|
|----------------|----------------|---------8---6-(6)------|----------------|
|-2--------------|----------------|-----6-7-----------7----|----------------|
|-2------2-------|--------2-------|---------------------7\-|--------2-0-----|
|-0--2-3---3-2-0-|----2-3---3-2-0-|--5---------------------|----2-3-----3-2-|
|----------------|-1--------------|------------------------|-0--------------|


                                                                   To Coda
                   ~
                                                   |-3--|
  Q  E E E E E E   Q  E E E E E E    Q  E E E S S +E  E E    Q  E E E E E E
|----------------|----------------|------------------------|----------------|
|----------------|----------------|---------5--------------|----------------|
|-2--------------|----------------|-------------7-(7)------|----------------|
|-2------2-------|--------2-------|-----6-7-----------7s0--|--------2-0-----|
|-0--2-3---3-2-0-|----2-3---3-2-0-|-/5---------------------|----2-3-----3-2-|
|----------------|-1--------------|------------------------|-0--------------|
|
|                  ~
|                                                  |-3--|
| Q  E E E E E E   Q  E E E E E E    Q  E E E S S +E  E E    Q  E E E E E E
|----------------|----------------|------------------------|----------------|
|----------------|----------------|---------8---6-(6)------|----------------|
|-2--------------|----------------|-----6-7-----------7----|----------------|
|-2------2-------|--------2-------|---------------------7\-|--------2-0-----|
|-0--2-3---3-2-0-|----2-3---3-2-0-|--5---------------------|----2-3-----3-2-|
|----------------|-1--------------|------------------------|-0--------------|


  F5         G5   N.C.
  Gtr IV
  ~~~~~~~~~~~~~
  W          H     S  S  S  S  S  S  S  S
|----------|------------------------------||
|----------|-------5--6--5-----5--6--8--5-||
|----------|----------------7-------------||
|-3--------|-5----------------------------||
|-3--------|-5----------------------------||
|-1--------|-3----------------------------||
|
| Gtr V
| ~~~~~~~~~~~~~
| W          H     S  S  S  S  S  S  S  S
|----------|---------------------------12-||
|-6--------|-8----12-13-12----12-13-15----||
|----------|---------------14-------------||
|----------|------------------------------||
|----------|------------------------------||
|----------|------------------------------||


 Chorus
  A5  N.C.(C5)  (D5)N.C.     F5N.C.  G5  A5 N.C.(C5)  (D5)N.C.  F5N.D5N.C.
  Gtr IV
                      >
   ~~~~~~~~~~~~~~~~~~~~~~
   W                 +W                  W                W
|--8--------------|--(8)---------------|----------------|-----------------|
|-----------------|--------------------|----------------|-----------------|
|-----------------|--------------------|----------------|-----------------|
|-----------------|--------------------|----------------|-----------------|
|-----------------|--------------------|----------------|-----------------|
|-----------------|--------------------|----------------|-----------------|
|
| Gtr V
|                     >
|  ~~~~~~~~~~~~~~~~~~~~~~
|  W                 +W                  W                W
|-17--------------|-(17)---------------|----------------|-----------------|
|-----------------|--------------------|----------------|-----------------|
|-----------------|--------------------|----------------|-----------------|
|-----------------|--------------------|----------------|-----------------|
|-----------------|--------------------|----------------|-----------------|
|-----------------|--------------------|----------------|-----------------|
|
| Gtrs II, III
|     PM|   PM|       PM---|   PM--|        PM|   PM|     PM--|   PM  PM|
|  Q  E E E E E E     E  E E E E E E E   Q  E E E E E E   E E E E E E E E
|-----------------|--------------------|----------------|-----------------|
|-----------------|--------------------|----------------|-----------------|
|--2--------------|--------------------|-2--------------|-----------2-----|
|--2--------------|--------------------|-2--------------|-----------0-----|
|--0------3-----5-|----------3-------5-|-0------3-----5-|-------3---------|
|-----3-1---1-0---|---0--0-0-1-0-0-0-3-|----3-1---1-0---|-0-0-0-1-0---3-4-|


                                                        D.S. al Coda
  A5 N.C.(C5)  (D5)N.C.  F5N.C.  G5  A5 N.C.(C5)  (D5)N.C.  F5N.D5N.C.
  Gtr II
     PM|   PM|     PM--|   PM--|        PM|   PM|     PM--|   PM  PM|
  Q  E E E E E E   E E E E E E E E   Q  E E E E E E   E E E E E E E E
|----------------|-----------------|----------------|-----------------||
|----------------|-----------------|----------------|-----------------||
|-2--------------|-----------------|-2--------------|-----------2-----||
|-2--------------|-----------------|-2--------------|-----------0-----||
|-0------3-----5-|-------3-------5-|-0------3-----5-|-------3---------||
|----3-1---1-0---|-0-0-0-1-0-0-0-3-|----3-1---1-0---|-0-0-0-1-0---3-4-||
|
| Gtr III
|    PM|   PM|     PM--|   PM--|        PM|   PM|     PM--|   PM  PM|
| Q  E E E E E E   E E E E E E E E   Q  E E E E E E   E E E E E E E E
|----------------|-----------------|----------------|-----------------||
|----------------|-----------------|----------------|-----------------||
|-2--------------|-----------------|-2--------------|-----------2-----||
|-2--------------|-----------------|-2--------------|-----------0-----||
|-0------3-----5-|-------3-------5-|-0------3-----5-|-------3---------||
|----3-1---1-0---|-0-0-0-1-0-0-0-3-|----3-1---1-0---|-0-0-0-1-0---3-4-||


 Guitar Solo
  &
  A5BbA5   G5  F5  E5F5E5     E5  G5
  Gtr II
  E E Q  E E E E   E E Q  E   E E E
  | | |    |   |   | | |      |   |
  / / /    /   /   / / /      /   /

  Gtr IV
      ~                ~
  E E Q  E E E E   E E Q  E a E E E
|----------------|------------------|
|----------------|------------------|
|----------------|------------------|
|-7-8-7----5-----|------------------|
|--------------8-|-7-8-7----3s5-----|
|----------------|----------------6-|


  A5BbA5   G5  D5   E5F5E5VII     D5      Bb5
  E E Q  E E E  E   E E Q     E   E   E   E
  | | |    |    |   | | |         |       |
  / / /    /    /   / / /         /       /

      ~
                        |-3-| |--3--| |--3--|
  E E Q  E E E  E   Q   E E E E E   E E E   E
|-----------------|---------------------------|
|-----------------|---------------------------|
|-----------------|---------------------------|
|-----------------|-------------------5-6---7-|
|--------------/5-|-----------5-6---7---------|
|-5-6-5----3------|-----5h6h7-----------------|


  A5BbA5   G5  F5  E5F5E5       G5     A5  BbA5           G5         D5
  E E Q  E E E E   E E Q  E E E E       E  E Q      E      E      E   E
  | | |    |   |   | | |    |   |       |  | |             |          |
  / / /    /   /   / / /    /   /       /  / /             /          /

      ~                ~                     ~~~~   T
                                                    |-3-|             |3-|
  E E Q  E E E E   E E Q  E E E E      +Q    Q      S S S  E     +E  +E  S
|----------------|-------------------|-------------------------------------|
|----------------|-5-6-5--------8b10-|-(8)---8b10--10p8p5------------------|
|--------------7-|----------7--------|--------------------[7]b9==(7)r(7)p5-|
|-7-8-7----5-----|-------------------|-------------------------------------|
|----------------|-------------------|-------------------------------------|
|----------------|-------------------|-------------------------------------|


  E5VIIF5VIII    E5VII            D5   Bb5
  E    E          Q           E   E E  E
  |    |          |               |    |
  /    /          /               /    /

                              ~~~~
  |-----3-----|   |---3---|
  Q      a a  E   E   E   E  +Q     E  E
|--------------------------------------x-|
|--------------------------------------x-|
|-7b9========[7]-[7]-[7]-[7]-(7)r---7/---|
|----------x-----------------------------|
|--------x-------------------------------|
|----------------------------------------|


  A5         Bb5   A5                  G5            F5
   E          E     Q             E     E  E          E
   |          |     |                   |             |
   /          /     /                   /             /

   S     +S   S  S  e  S     +S   S  S  e  S     +S   S  S
|-----------------------------------------------------------|
|------------17-20---------------17-20---------------17-20--|
|-19b21-(19)-------17-19b21-(19)-------17-19b21-(19)--------|
|-----------------------------------------------------------|
|-----------------------------------------------------------|
|-----------------------------------------------------------|


  E5       F5    E5                            G5
   E        E     Q           E     E     E     E
   |        |     |                 |           |
   /        /     /                 /           /

   S     S  S  S  S  S  S  S  S  S  S  S  S  S  S  S
|----------------------------------------------------|
|-------17-20-------20-------------------------------|
|-19b21-------19h21----17----19----17----20----19-17-|
|-------------------------19----19----19----19-------|
|----------------------------------------------------|
|----------------------------------------------------|


  A5     BbA5               G5          D5
   E     E  Q            E   E     E     E
   |     |  |                |           |
   /     /  /                /           /

      ~~~            ~~~~~~~
   S  E.    S  S  S  S  +E   S  S  S  S  S  S
|----------------------------------------------|
|----------------------------------------------|
|-17s14----14h17p12-14-(14)-14-12--------------|
|---------------------------------14-13-12-13--|
|----------------------------------------------|
|----------------------------------------------|


  E5VII F5VIIIE5VII             D5       Bb5
   E     E     Q           E     E     E E
   |     |     |                 |       |
   /     /     /                 /       /

                                       ~~
   S  S  S  S  S  S  S  S  S  S  S  S  Q
|------------------------------------------|
|-------------15-12h13---------------------|
|----14-12h13----------14-12h13------------|
|-14----------------------------14-13-12---|
|------------------------------------------|
|------------------------------------------|


  A5 Bb5A5        G5           F5  E5 F5 E5                     G5
   E  E  Q    E     E     E    E    E  E  Q    E     E     E     E
   |  |  |          |          |    |  |  |          |           |
   /  /  /          /          /    /  /  /          /           /

         ~~                               ~~
   E  E  Q   +E     S  S  S  S E    E  E  Q   +E     S  S  S  S  S  S
|--------------------------------|-12-13-12--(12)\-/13-12--------------|
|-10-11-10--(10)\-/11-10---------|------------------------15-13-11-----|
|------------------------12-10-9-|---------------------------------12s=|
|--------------------------------|-------------------------------------|
|--------------------------------|-------------------------------------|
|--------------------------------|-------------------------------------|


  A5 BbA5            G5       D5
   E E  Q      E     E  E     E
   | |  |            |        |
   / /  /            /        /

   ~~      ~~~    ~~~      ~~~~~~
   Q    S  E.  S  E.    S  E.
|-------------------------------|
|------13-----15-------17-------|
|-14------14-----14-------14----|
|-------------------------------|
|-------------------------------|
|-------------------------------|


  E5VII F5E5VII                         E5   F5E5
   E    E H.                              E  E H.
   |    | |                               |  | |
   /    / /                               /  / /

 ~~~~~~~                                  ~~~~
              |--3--|
   Q.         S  S  S  Q      +Q         +H        E  S  S  E  S  S
|------------17-----------------------|-----------------------------|
|-20b22---------20p17-----------------|------------------x\-------x-|
|---------------------19b21r=(19)b21--|-(19)-------x\----x\-x\----x-|
|-------------------------------------|------------x\-x/----x\-x/---|
|-------------------------------------|---------------x/-------x/---|
|-------------------------------------|-----------------------------|


  E5   F5E5                    E5  F5E5
  E    E H.                     E  E  H.
  |    | |                      |  |  |
  /    / /                      /  /  /

                                                 ~~~~~~~
  H.           E    +E         +Q    +E  +S  S S E. +Q
|----------------------------|---------------------------|
|-5tr8---------8b9==(8)b9.5==|=(8)---(8)r(8)p6-5---------|
|----------------------------|-------------------7--(7)--|
|----------------------------|---------------------------|
|----------------------------|---------------------------|
|----------------------------|---------------------------|


  E5
   W
   |
   /

   S  S  S  S  S  S  S  S   S  S  S  S  S  S  S  S
|-----------------------------------------15-17-19-||
|-------------------12-15--------15-16-17----------||
|-------13-16-12-13-------/15-16-------------------||
|-14-15--------------------------------------------||
|--------------------------------------------------||
|--------------------------------------------------||


 Chorus
  A5     N.C.(C5)  (D5)N.C.  F5N.C.  G5  A5 N.C.(C5)  (D5)N.C.  F5N.D5N.C.
   W                   W                 W                W
|-22b24--------------|-----------------|----------------|-----------------|
|--------------------|-----------------|----------------|-----------------|
|--------------------|-----------------|----------------|-----------------|
|--------------------|-----------------|----------------|-----------------|
|--------------------|-----------------|----------------|-----------------|
|--------------------|-----------------|----------------|-----------------|
|
| Gtrs II, III
|        PM|   PM|     PM--|   PM--|        PM|   PM|     PM--|   PM  PM|
|  Q     E E E E E E   E E E E E E E E   Q  E E E E E E   E E E E E E E E
|--------------------|-----------------|----------------|-----------------|
|--------------------|-----------------|----------------|-----------------|
|--2-----------------|-----------------|-2--------------|-----------2-----|
|--2-----------------|-----------------|-2--------------|-----------0-----|
|--0---------3-----5-|-------3-------5-|-0------3-----5-|-------3---------|
|--------3-1---1-0---|-0-0-0-1-0-0-0-3-|----3-1---1-0---|-0-0-0-1-0---3-4-|


  A5 N.C.(C5)  (D5)N.C.  F5N.C.  G5  A5 N.C.(C5)  (D5)N.C.  F5N.D5N.C.
  Gtr II
     PM|   PM|     PM--|   PM--|        PM|   PM|     PM--|   PM  PM|
  Q  E E E E E E   E E E E E E E E   Q  E E E E E E   E E E E E E E E
|----------------|-----------------|----------------|-----------------||
|----------------|-----------------|----------------|-----------------||
|-2--------------|-----------------|-2--------------|-----------2-----||
|-2--------------|-----------------|-2--------------|-----------0-----||
|-0------3-----5-|-------3-------5-|-0------3-----5-|-------3---------||
|----3-1---1-0---|-0-0-0-1-0-0-0-3-|----3-1---1-0---|-0-0-0-1-0---3-4-||
|
| Gtr III
|    PM|   PM|     PM--|   PM--|        PM|   PM|     PM--|   PM  PM|
| Q  E E E E E E   E E E E E E E E   Q  E E E E E E   E E E E E E E E
|----------------|-----------------|----------------|-----------------||
|----------------|-----------------|----------------|-----------------||
|-2--------------|-----------------|-2--------------|-----------2-----||
|-2--------------|-----------------|-2--------------|-----------0-----||
|-0------3-----5-|-------3-------5-|-0------3-----5-|-------3---------||
|----3-1---1-0---|-0-0-0-1-0-0-0-3-|----3-1---1-0---|-0-0-0-1-0---3-4-||


 Bridge
  B5 N.C.          F#G5F#N.C.E5N.C5  B5 N.C.          F#G5F#N.C.E5N.C5
     PM|   PM|           PM|   PM       PM|   PM|           PM|   PM
  Q  E E E E E E   E E E E E E E E   Q  E E E E E E   E E E E E E E E
|----------------|-----------------|----------------|------------------|
|----------------|-----------------|----------------|------------------|
|-4--------------|---------------5-|-4--------------|---------------5--|
|-4--------------|-4-5-4-----2---5-|-4--------------|-4-5-4-----2---5--|
|-2------5-----7-|-4-5-4-----2-x-3-|-2------5-----7-|-4-5-4-----2-x-3--|
|----3-2---3-2---|-2-3-2-2-2-0-x---|----3-2---3-2---|-2-3-2-2-2-0-x----|
|
|    PM|   PM|           PM|   PM       PM|   PM|           PM|   PM
| Q  E E E E E E   E E E E E E E E   Q  E E E E E E   E E E E E E E E
|----------------|-----------------|----------------|------------------|
|----------------|-----------------|----------------|------------------|
|-4--------------|---------------5-|-4--------------|---------------5--|
|-4--------------|-4-5-4-----2---5-|-4--------------|-4-5-4-----2---5--|
|-2------5-----7-|-4-5-4-----2-x-3-|-2------5-----7-|-4-5-4-----2-x-3--|
|----3-2---3-2---|-2-3-2-2-2-0-x---|----3-2---3-2---|-2-3-2-2-2-0-x----|


  B5 N.C.          F#G5F#N.C.E5N.C5  B5 N.C.          F#G5F#N.C.E5N.C5
     PM|   PM|           PM|   PM       PM|   PM|           PM|   PM
  Q  E E E E E E   E E E E E E E E   Q  E E E E E E   E E E E E E E E
|----------------|-----------------|----------------|------------------||
|----------------|-----------------|----------------|------------------||
|-4--------------|---------------5-|-4--------------|---------------5--||
|-4--------------|-4-5-4-----2---5-|-4--------------|-4-5-4-----2---5--||
|-2------5-----7-|-4-5-4-----2-x-3-|-2------5-----7-|-4-5-4-----2-x-3--||
|----3-2---3-2---|-2-3-2-2-2-0-x---|----3-2---3-2---|-2-3-2-2-2-0-x----||
|
|    PM|   PM|           PM|   PM       PM|   PM|           PM|   PM
| Q  E E E E E E   E E E E E E E E   Q  E E E E E E   E E E E E E E E
|----------------|-----------------|----------------|------------------||
|----------------|-----------------|----------------|------------------||
|-4--------------|---------------5-|-4--------------|---------------5--||
|-4--------------|-4-5-4-----2---5-|-4--------------|-4-5-4-----2---5--||
|-2------5-----7-|-4-5-4-----2-x-3-|-2------5-----7-|-4-5-4-----2-x-3--||
|----3-2---3-2---|-2-3-2-2-2-0-x---|----3-2---3-2---|-2-3-2-2-2-0-x----||


 Out-Chorus
  A5 N.C.(C5)  (D5)N.C.  F5N.C.  G5  A5 N.C.(C5)  (D5)N.C.  F5N.D5N.C.
     PM|   PM|     PM--|   PM--|        PM|   PM|     PM--|   PM  PM|
  Q  E E E E E E   E E E E E E E E   Q  E E E E E E   E E E E E E E E
|----------------|-----------------|----------------|------------------|
|----------------|-----------------|----------------|------------------|
|-2--------------|-----------------|-2--------------|-----------2------|
|-2--------------|-----------------|-2--------------|-----------0------|
|-0------3-----5-|-------3-------5-|-0------3-----5-|-------3----------|
|----3-1---1-0---|-0-0-0-1-0-0-0-3-|----3-1---1-0---|-0-0-0-1-0---3-4--|
|
|    PM|   PM|     PM--|   PM--|        PM|   PM|     PM--|   PM  PM|
| Q  E E E E E E   E E E E E E E E   Q  E E E E E E   E E E E E E E E
|----------------|-----------------|----------------|------------------|
|----------------|-----------------|----------------|------------------|
|-2--------------|-----------------|-2--------------|-----------2------|
|-2--------------|-----------------|-2--------------|-----------0------|
|-0------3-----5-|-------3-------5-|-0------3-----5-|-------3----------|
|----3-1---1-0---|-0-0-0-1-0-0-0-3-|----3-1---1-0---|-0-0-0-1-0---3-4--|


  A5 N.C.(C5)  (D5)N.C.  F5N.C.  G5  A5 N.C.(C5)  (D5)N.C.  F5N.D5N.C.
     PM|   PM|     PM--|   PM--|        PM|   PM|     PM--|   PM  PM|
  Q  E E E E E E   E E E E E E E E   Q  E E E E E E   E E E E E E E E
|----------------|-----------------|----------------|-----------------|
|----------------|-----------------|----------------|-----------------|
|-2--------------|-----------------|-2--------------|-----------2-----|
|-2--------------|-----------------|-2--------------|-----------0-----|
|-0------3-----5-|-------3-------5-|-0------3-----5-|-------3---------|
|----3-1---1-0---|-0-0-0-1-0-0-0-3-|----3-1---1-0---|-0-0-0-1-0---3-4-|
|
|    PM|   PM|     PM--|   PM--|        PM|   PM|     PM--|   PM  PM|
| Q  E E E E E E   E E E E E E E E   Q  E E E E E E   E E E E E E E E
|----------------|-----------------|----------------|-----------------|
|----------------|-----------------|----------------|-----------------|
|-2--------------|-----------------|-2--------------|-----------2-----|
|-2--------------|-----------------|-2--------------|-----------0-----|
|-0------3-----5-|-------3-------5-|-0------3-----5-|-------3---------|
|----3-1---1-0---|-0-0-0-1-0-0-0-3-|----3-1---1-0---|-0-0-0-1-0---3-4-|


  F5         G5   G#N.C.      A5
                    PM----|
  W          H    E E S S E   Q.   E H
|----------|----------------|-------------*|
|----------|----------------|-------------*|
|----------|----------------|-------------*|
|-3--------|-5--------------|-7\----------*|
|-3--------|-5----6---------|-7\----------*|
|-1--------|-3----4-0-1-1-0-|-5\----------*|
|
|                   PM----|
| W          H    E E S S E   Q.   E H
|----------|----------------|-------------*|
|----------|----------------|-------------*|
|----------|----------------|-------------*|
|-3--------|-5--------------|-7\----------*|
|-3--------|-5----6---------|-7\----------*|
|-1--------|-3----4-0-1-1-0-|-5\----------*|



Duration Legend
---------------
W - whole; H - half; Q - quarter; E - 8th; S - 16th; T - 32nd; X - 64th; a - acciaccatura
+ - note tied to previous; . - note dotted; .. - note double dotted
Uncapitalized letters represent notes that are staccato (1/2 duration)
Irregular groupings are notated above the duration line
Duration letters will always appear directly above the note/fret number it represents the
duration for.  Duration letters with no fret number below them represent rests.  Multi-
bar rests are notated in the form Wxn, where n is the number of bars to rest for.  Low
melody durations appear below the staff

Tablature Legend
----------------
 h   - hammer-on
 p   - pull-off
 b   - bend
 pb  - pre-bend
 r   - bend release (if no number after the r, then release immediately)
 /\  - slide into or out of (from/to "nowhere")
 s   - legato slide
 S   - shift slide
 - natural harmonic
[n]  - artificial harmonic
n(n) - tapped harmonic
 ~   - vibrato
 tr  - trill
 T   - tap
 TP  - trem. picking
 PM  - palm muting
\n/  - tremolo bar dip; n = amount to dip
 \n  - tremolo bar down
 n/  - tremolo bar up
/n\  - tremolo bar inverted dip
 =   - hold bend; also acts as connecting device for hammers/pulls
 <> - volume swell (louder/softer)
 x   - on rhythm slash represents muted slash
 o   - on rhythm slash represents single note slash

Misc Legend
-----------
 |  - bar
||  - double bar
||o - repeat start
o|| - repeat end
*|  - double bar (ending)
 :  - bar (freetime)
 $  - Segno
 &  - Coda
Tempo markers -  = BPM(8/16=s8/s16), where s8 = swing 8ths, s16 = swing 16ths

Related for Blood Of Heroes tab