Song name
# A B C D E F G H I J K L M N O P Q R S T U V W X Y Z

Megadeth - Mary Jane tab

#----------------------------------PLEASE NOTE---------------------------------#
#This file is the author's own work and represents their interpretation of the #
#song. You may only use this file for private study, scholarship, or research. #
#------------------------------------------------------------------------------#

MARY JANE
As recorded by Megadeth
(From the 1988 Album SO FAR, SO GOOD ... SO WHAT!)

Transcribed by Renegade Pancake
	

Words and Music by Dave Mustaine
Arranged by Renegade Pancake

Gtr I (E A D G B E) - 'Dave Mustaine'
Gtr II (E A D G B E) - 'Jeff Young'
Gtr III (E A D G B E) - 'Overdub'
Gtr IV (E A D G B E) - 'Dave Mustaine - Clean'

  Q.=122
  Ebm                             C#
 12/8
  Gtr I
        PM--|           PM---|            PM--|            PM----|
   Q.   E E E   Q.      E  E  E    Q.     E E E   Q.       E   E  E
|-------------------------------|------------------------------------|
|-------------------------------|------------------------------------|
|-------------------------------|------------------------------------|
|--4------------4---------------|--3--------------3------------------|
|--6----6-6-6---6-------6--6--6-|--4------4-4-4---4--------4---4--4--|
|-------------------------------|------------------------------------|
|
| Gtr II
|  Q.   E E E   E  E E  E  E  E    E  E E E E E   E  E E   E   E  E
|-------6-----------------------|-----4------------------------------|
|---------9-7---6--7----6-------|-------7-5-4-5------4---------4-----|
|--8-----------------8-----6--8-|--6--------------6----5---6------6--|
|-------------------------------|------------------------------------|
|-------------------------------|------------------------------------|
|-------------------------------|------------------------------------|
|
| Gtr III
|  H.          +Q.      E  E  E    H.            +Q.      +E   E  E
|-------------------------------|------------------------------------|
|-------------------------------|------------------------------------|
|-------------------------------|------------------------------------|
|-13----------(13)-----13h14p13-|-11------------(11)-----(11)h13p11--|
|-------------------------------|------------------------------------|
|-------------------------------|------------------------------------|


  B                             A
       PM--|          PM----|          PM--|          PM---|
  Q.   E E E  Q.      E   E E   Q.     E E E  Q.      E  E E
|-----------------------------|------------------------------|
|-----------------------------|------------------------------|
|-----------------------------|------------------------------|
|-----------------------------|------------------------------|
|-6-----------6---------------|-4-------------4--------------|
|-7----7-7-7--7-------7---7-7-|-5------5-5-5--5-------5--5-5-|
|
| Q.   E E E  E  E E  E   E E   E  E E E E E  E  E E  E  E E
|------2----------------------|------------------------------|
|--------5-3--2--3----2-------|----5-------------------------|
|-4----------------4------2-4-|------7-5-4-5-----4-------4---|
|-----------------------------|-7-------------7----6--7----7-|
|-----------------------------|------------------------------|
|-----------------------------|------------------------------|
|
| H.         +Q.     +E   E E   H.           +Q.      E  E E
|-----------------------------|------------------------------|
|-----------------------------|------------------------------|
|-----------------------------|------------------------------|
|-9----------(9)-----(9)h11p9-|-7------------(7)-----[7]h9p7-|
|-----------------------------|------------------------------|
|-----------------------------|------------------------------|


                               Q.=92
  G                            F
       PM--|          PM---|
  Q.   E E E  Q.      E  E E    W.
|----------------------------|--------|
|----------------------------|--------|
|----------------------------|--------|
|----------------------------|--------|
|-2-----------2--------------|--0-----|
|-3----3-3-3--3-------3--3-3-|--1-----|
|
| Q.   E E E  E  E E  E  E E    W.
|----------------------------|--------|
|------3---------------------|--------|
|--------5-3--2--3----2------|--------|
|-5----------------5-----3-5-|--3-----|
|----------------------------|--------|
|----------------------------|--------|
|
| H.         +Q.     +E  E E    W.
|----------------------------|--------|
|----------------------------|--------|
|----------------------------|--------|
|-5----------(5)-----(5)h7p5-|-[3]----|
|----------------------------|--------|
|----------------------------|--------|


  Q.=114
  N.C.                                                      G5 F5
  H.            H.               H.                Q.    E   E  E
|-----------------------------|------------------------------------|
|-----------------------------|------------------------------------|
|-----------------------------|------------------------------------|
|-----------------------------|------------------------------------|
|-----------------------------|------------------------------5--3--|
|-----------------------------|------------------------------3--1--|
|
|                                            |-3-|
| H       H.          +E  S S    Q.    +Q    S S S Q.   +E   E  E
|-----------------------------|------------------------------------|
|-------------------------6h8h|=10----(10)--10-8-6-----------------|
|-9b11r===9b11r=======(9)-----|--------------------9----(9)-10s12--|
|-----------------------------|------------------------------------|
|-----------------------------|------------------------------------|
|-----------------------------|------------------------------------|


  E5          F5 G5          A5   Bb5
   Q    Q   E  E  Q    Q   E  E    H        E      E  E  E  E  E  E  E
|-------------------------------|--------------------------------------|
|-------------------------------|--------------------------------------|
|-------------------------------|---------------------------------2----|
|-----------------------------2-|--3---------------------2--3--5-----3-|
|--2--------2--3--5--------5--0-|--1--------3------4--5----------------|
|--0--------0--1--3--------3----|--------------------------------------|
|
|  E  E Q   E  E  E  E Q   E  E    H        E      E  E  E  E  E  E  E
|-------------------------------|-15b17----15pb17r13-12----------------|
|-15-------------18-------15----|-----------------------15-13-11-------|
|----12----12s15----15-------12-|--------------------------------14-10-|
|-------------------------------|--------------------------------------|
|-------------------------------|--------------------------------------|
|-------------------------------|--------------------------------------|


 "Mary Jane..."
  Dm            Fadd6            Em9           A7
  Gtr IV
   E  E E E E E   E  E E E E E    E  E E E E E  E  E E E E E
|---------1--------------1-----|---------1-------------0-----|
|-------3---3----------3---3---|-------3---3---------2---2---|
|-----2-------2------2-------2-|-----0-------0-----0-------0-|
|--0--------------3------------|--2-------------2------------|
|------------------------------|-----------------------------|
|------------------------------|-----------------------------|
|
|         PM--|          PM--|           PM--|         PM--|
|  Q.     E E E   Q.     E E E    Q.     E E E  Q.     E E E
|------------------------------|-----------------------------|
|------------------------------|-----------------------------|
|------------------------------|-----------------------------|
|--7-------------10------------|--9-------------7------------|
|--5------5-5-5---8------8-8-8-|--7------7-7-7--4------4-4-4-|
|------------------------------|-----------------------------|
|
| Gtr I
|  H.            +H.              H.            H.
|------------------------------|-----------------------------|
|------------------------------|-----------------------------|
|------------------------------|-----------------------------|
|-12------------(12)-----------|-12------------11------------|
|------------------------------|-----------------------------|
|------------------------------|-----------------------------|


  F9            A7              Dm            C11add6
   E  E E E E E  E  E E E E E    E  E E E E E  E  E E E E E
|---------1-------------0-----|---------1-------------1-----|
|-------3---3---------2---2---|-------3---3---------3---3---|
|-----0-------0-----0-------0-|-----2-------2-----2-------2-|
|--3-------------2------------|--0--------------------------|
|-----------------------------|----------------3------------|
|-----------------------------|-----------------------------|
|
|         PM--|         PM--|           PM--|         PM--|
|  Q.     E E E  Q.     E E E    Q.     E E E  Q.     E E E
|-----------------------------|-----------------------------|
|-----------------------------|-----------------------------|
|-----------------------------|-----------------------------|
|-10-------------7------------|--7-------------5------------|
|--8------8-8-8--4------4-4-4-|--5------5-5-5--3------3-3-3-|
|-----------------------------|-----------------------------|
|
|  H.            H.              H.            H.
|-----------------------------|-----------------------------|
|-----------------------------|-----------------------------|
|-----------------------------|-----------------------------|
|-12------------11------------|-12------------10------------|
|-----------------------------|-----------------------------|
|-----------------------------|-----------------------------|


  Bm6add4      Gadd6          Cadd9        Bm6add4
  E  E E E E E E  E E E E E   E  E E E E E E  E E E E E
|--------0------------0-----|--------0------------0-----|
|------3---3--------3---3---|------3---3--------3---3---|
|----0-------0----0-------0-|----0-------0----0-------0-|
|---------------------------|---------------------------|
|-2-------------------------|-3------------2------------|
|--------------3------------|---------------------------|
|
|        PM--|        PM--|          PM--|        PM--|
| Q.     E E E Q.     E E E   Q.     E E E Q.     E E E
|---------------------------|---------------------------|
|---------------------------|---------------------------|
|---------------------------|---------------------------|
|-4-------------------------|-5------------4------------|
|-2------2-2-2-5------------|-3------3-3-3-2------2-2-2-|
|--------------3------3-3-3-|---------------------------|
|
| H.           H.             H.           H.
|---------------------------|---------------------------|
|---------------------------|---------------------------|
|---------------------------|---------------------------|
|-9------------5------------|---------------------------|
|---------------------------|---------------------------|
|---------------------------|---------------------------|


  Cadd9        C#m9b5         Dm           C11add6
  E  E E E E E E  E E E E E   E  E E E E E E  E E E E E
|--------0------------0-----|--------1------------1-----|
|------3---3--------3---3---|------3---3--------3---3---|
|----0-------0----0-------0-|----2-------2----2-------2-|
|---------------------------|-0-------------------------|
|-3------------4------------|--------------3------------|
|---------------------------|---------------------------|
|
|        PM--|        PM--|          PM--|        PM--|
| Q.     E E E Q.     E E E   Q.     E E E Q.     E E E
|---------------------------|---------------------------|
|---------------------------|---------------------------|
|---------------------------|---------------------------|
|-5------------6------------|-7------------5------------|
|-3------3-3-3-4------4-4-4-|-5------5-5-5-3------3-3-3-|
|---------------------------|---------------------------|


  Bm6add4b5    Gadd6          Cadd9        Bm6add4
  E  E E E E E E  E E E E E   E  E E E E E E  E E E E E
|--------1------------0-----|--------0------------0-----|
|------3---3--------3---3---|------3---3--------3---3---|
|----0-------0----0-------0-|----0-------0----0-------0-|
|---------------------------|---------------------------|
|-2-------------------------|-3------------2------------|
|--------------3------------|---------------------------|
|
|        PM--|        PM--|          PM--|        PM--|
| Q.     E E E Q.     E E E   Q.     E E E Q.     E E E
|---------------------------|---------------------------|
|---------------------------|---------------------------|
|---------------------------|---------------------------|
|-4-------------------------|-5------------4------------|
|-2------2-2-2-5------------|-3------3-3-3-2------2-2-2-|
|--------------3------3-3-3-|---------------------------|


                              Theme I
  Bbmadd4+5    N.C.            E5
                               Gtr I
  E  E E E E E E E E E E E     E E E  E  E E E E E  E  E E
|--------0-----1---3---1-0-||------------------------------|
|------2---2-----2---2-----||o-----------------------------|
|----0-------0-------------||------------------------------|
|--------------------------||--9---------9-9-9---------9-9-|
|-1------------------------||o-7---------7-7-7---------7-7-|
|--------------------------||----0-0--0--------0-0--0------|
|
|        PM--|
| Q.     E E E E E E E E E     E E E +Q.     E E E +Q.
|--------------------------||--7-------------7-------------|
|--------------------------||o---5-------------5-----------|
|--------------------------||------4-(4)---------4-(4)-----|
|-3------------------------||------------------------------|
|-1------1-1-1-----------0-||o-----------------------------|
|--------------3-1-0-1-3---||------------------------------|


  C                                   A
   E E E  E   E  E  E E E  E   E  E   E E E  E  E E E E E  E  E  E
|-----------------------------------|-------------------------------|
|-----------------------------------|-------------------------------|
|-----------------------------------|-------------------------------|
|-----------------------------------|-------------------------------|
|-10---------10-10-10---------10-10-|-7---------7-7-7---------7--7--|
|--8-0-0--0---8--8--8-0-0--0---8--8-|-5-5-5--5--5-5-5-5-5--5--5--5--|
|
|  E E E +Q.        E E E +Q.         E E E +Q.     E E E +Q     E
|--8----------------8---------------|-9-------------9---------------|
|----5----------------5-------------|---5-------------5-------------|
|------5-(5)------------5-(5)-------|-----6-(6)---------6-(6)---(6)-|
|-----------------------------------|-------------------------------|
|-----------------------------------|-------------------------------|
|-----------------------------------|-------------------------------|


  Bb5                         A5   G5     N.C.
   E    E  E  E    E  E  q     q    q     E S S E E E E E E E E E E
|---------------------------------------|----------------------------||
|---------------------------------------|---------------------------o||
|---------------------------------------|----------------------------||
|---------------------------------------|---------------5------------||
|--8---------------8--8--8-----7----5---|---------5-7---------5-7---o||
|--6----6--6--6----6--6--6-----5----3---|-0-0-0-0-----0---0-8-----6--||
|
|  Q       E  Q       E  E  E  E E  E E   E S S E E E E E E E E E E
|-15b17r==12----------------------------|----------------------------||
|------------15b17r==12-----------------|---------------------------o||
|-----------------------15-14-12s9------|----------------------------||
|----------------------------------12-9-|---------------5------------||
|---------------------------------------|---------5-7---------5-7---o||
|---------------------------------------|-0-0-0-0-----0---0-8-----6--||


   Verse I
    E5
    Gtrs I, III
    E E E E E E E E E E E E
||--------------------------|
||o-------------------------|
||--------------------------|
||--9-------9-9-9-------9-9-|
||o-7-------7-7-7-------7-7-|
||----0-0-0-------0-0-0-----|


  C                               A5
   E E E E  E  E  E E E E  E  E   E E E E E E E E E E E E
|-------------------------------|-------------------------|
|-------------------------------|-------------------------|
|-------------------------------|-------------------------|
|-------------------------------|-------------------------|
|-10-------10-10-10-------10-10-|-7-------7-7-7-------7-7-|
|--8-0-0-0--8--8--8-0-0-0--8--8-|-5-5-5-5-5-5-5-5-5-5-5-5-|


  Bb5            A5 G5   N.C.
  E E E E E E q  q  q    E S S E E E E E E E E E E
|----------------------|----------------------------||
|----------------------|---------------------------o||
|----------------------|----------------------------||
|----------------------|---------------5------------||
|-8-------8-8-8--7--5--|---------5-7---------5-7---o||
|-6-6-6-6-6-6-6--5--3--|-0-0-0-0-----0---0-8-----6--||


   Jeff Harmonics
    E5                         C
    E E E E E E E E E  E E E    E  E E E  E  E  E  E E  E  E  E
||---------------------------|----------------------------------|
||o--------------------------|----------------------------------|
||---------------------------|----------------------------------|
||--9-------9-9-9--------9-9-|-10--------10-10-10---------10-10-|
||o-7-------7-7-7--------7-7-|--7---------7--7--7----------7--7-|
||----0-0-0-------0-0--0-----|-----0-0-0-----------0-0--0-------|
|
|   Gtr II
|   E E E E E E E E E  E E E    E  E E E  E  E  E  E E  E  E  E
||--------7-----------10-7---|---------7---------------10--7----|
||o--------------------------|----------------------------------|
||-------------------------9-|--------------------------------9-|
||--8h9-------9-8h9----------|--9h10--------10--9h10------------|
||o-----7---7-------7--------|-------7----7----------7----------|
||---------------------------|----------------------------------|


  A
   E  E E E  E  E  E  E E  E  E  E
|----------------------------------|
|----------------------------------|
|----------------------------------|
|-11--------11-11-11---------11-11-|
|--7---------7--7--7----------7--7-|
|-----0-0-0-----------0-0--0-------|
|
|  E  E E E  E  E  E  E E  E  E  E
|---------7---------------10--7----|
|----------------------------------|
|--------------------------------9-|
|-10h11--------11-10h11------------|
|-------7----7----------7----------|
|----------------------------------|


 1.,2.,3.                                             4.
  Bbb5                                                 Bb5A5
   E  E   E    E    E   E   q       q       E   E   4x q  E +Q.   +H.
|---------------------------------------------------||-------------------|
|--------------------------------------------------o||-------------------|
|---------------------------------------------------||-------------------|
|-12---------------12--12--12------11------10---9---||-3--2-(2)---(2)----|
|--7----------------7---7---7-------7-------7---7--o||-1--0-(0)---(0)----|
|-----0---0----0------------------------------------||-------------------|
|
|  E  E   E    E    E   E   E   E   E   E   E   E   4x q  E +Q.   +H.
|--------------------------<7>----------------------||-------------------|
|-------<12>------<12>-------------<7>-------------o||-------------------|
|------------<12>------<7>-----------------<7>------||-------------------|
|-11h12------------------------<7>-----<7>-----<7>--||-------------------|
|--------------------------------------------------o||-8--7-(7)---(7)----|
|---------------------------------------------------||-6--5-(5)---(5)----|


 Tempo Change
  Q=157
 4/4
  Gtr I
  E E  S S E E E E  E   E E S S E E E  E  E
|---------------------|---------------------|
|---------------------|---------------------|
|---------------------|---------------------|
|---------------------|---------------12-10-|
|------5-6-7-----8-10-|-----5-6-7-----10--8-|
|-0-0--------0-0-6--8-|-0-0-------0-0-------|
|
| Gtr III
| E Q.       E E Q      E E Q     E E  Q
|---------------------|---------------------|
|---------------------|---------------------|
|---------------------|---------------------|
|-9----------9-9------|-9-9-------9-9-------|
|-7----------7-7------|-7-7-------7-7-------|
|-0----------0-0------|-0-0-------0-0-------|


  E E S S E E E E  E   E E S S E E E  E  E
|--------------------|---------------------|
|--------------------|---------------------|
|--------------------|---------------------|
|--------------------|---------------12-10-|
|-----5-6-7-----8-10-|-----5-6-7-----10--8-|
|-0-0-------0-0-6--8-|-0-0-------0-0-------|
|
| E E Q     E E Q      E E Q     E E  E  E
|--------------------|---------------------|
|--------------------|---------------------|
|--------------------|---------------------|
|-9-9-------9-9------|-9-9-------9-9-12-10-|
|-7-7-------7-7------|-7-7-------7-7-10--8-|
|-0-0-------0-0------|-0-0-------0-0-------|


 Theme II
  E E E  E +E   E E E   E E Q  S S S S S E.
|---------------------|------------------------|
|---------------------|------------------------|
|---------------------|------------------------|
|---7-8--9-(9)\-------|------------------------|
|---5-6--7-(7)\-5-5-8-|---7-7------------------|
|-0-------------3-3-6-|---5-5--5-6-5-3-5-3b3.5-|
|
| Q   H.                H      S S S S S E.
|---------------------|------------------------|
|---------------------|------------------------|
|---------------------|------------------------|
|-9-------------------|------------------------|
|-7-------------------|------------------------|
|-0-------------------|--------5-6-5-3-5-3b3.5-|


  Gtrs I, III
                             PM------------|
  E E E E +E   E E E   E E E S S E S S E S S
|--------------------|-----------------------|
|--------------------|-----------------------|
|--------------------|-----------------------|
|---7-8-9-(9)\-------|-----------------------|
|---5-6-7-(7)\-5-5-8-|---7-7-----------------|
|-0------------3-3-6-|---5-5-3-3-3-1-1-1-0-0-|


  PM
  E E E E +E   E E E   E E Q  S S S S S E.
|--------------------|------------------------|
|--------------------|------------------------|
|--------------------|------------------------|
|---7-8-9-(9)\-------|------------------------|
|---5-6-7-(7)\-5-5-8-|---7-7------------------|
|-0------------3-3-6-|---5-5--5-6-5-3-5-3b3.5-|


                             PM------------|
  E E E E +E   E E E   E E E S S E S S E S S
|--------------------|-----------------------|
|--------------------|-----------------------|
|--------------------|-----------------------|
|---7-8-9-(9)\-------|-----------------------|
|---5-6-7-(7)\-5-5-8-|---7-7-----------------|
|-0------------3-3-6-|---5-5-3-3-3-1-1-1-0-0-|


  PM
  E E E E +E   E E E   E E Q  S S S S S E.
|--------------------|------------------------|
|--------------------|------------------------|
|--------------------|------------------------|
|---7-8-9-(9)\-------|------------------------|
|---5-6-7-(7)\-5-5-8-|---7-7------------------|
|-0------------3-3-6-|---5-5--5-6-5-3-5-3b3.5-|


  PM            PM       PM|   PM
  E E +e  E +e  E S E.   E E E E S S E S S E
|----------------------|---------------------|
|----------------------|---------------------|
|----------------------|---------------------|
|---5-(5)-6-(6)---7s9--|-----5---------------|
|---3-(3)-4-(4)---5s7--|-----5---5-5-5-3-3-3-|
|-0-3-(3)-4-(4)-0------|-7-5---0-3-3-3-1-1-1-|


 Repeat of E
  Gtr I
  E E  S S E E E E  E   E E S S E E E  E  E
|---------------------|---------------------|
|---------------------|---------------------|
|---------------------|---------------------|
|---------------------|---------------12-10-|
|------5-6-7-----8-10-|-----5-6-7-----10--8-|
|-0-0--------0-0-6--8-|-0-0-------0-0-------|
|
| Gtr III
| E Q.       E E Q      E E Q     E E  Q
|---------------------|---------------------|
|---------------------|---------------------|
|---------------------|---------------------|
|-9----------9-9------|-9-9-------9-9-------|
|-7----------7-7------|-7-7-------7-7-------|
|-0----------0-0------|-0-0-------0-0-------|


  E E S S E E E E  E   E E S S E E E  E  E
|--------------------|---------------------|
|--------------------|---------------------|
|--------------------|---------------------|
|--------------------|---------------12-10-|
|-----5-6-7-----8-10-|-----5-6-7-----10--8-|
|-0-0-------0-0-6--8-|-0-0-------0-0-------|
|
| E E Q     E E Q      E E Q     E E  E  E
|--------------------|---------------------|
|--------------------|---------------------|
|--------------------|---------------------|
|-9-9-------9-9------|-9-9-------9-9-12-10-|
|-7-7-------7-7------|-7-7-------7-7-10--8-|
|-0-0-------0-0------|-0-0-------0-0-------|


   Verse II
    Gtrs I, II, III
    E E S S E E E E  E   E E S S E E E  E  E  4x
||---------------------|----------------------||
||o--------------------|---------------------o||
||---------------------|----------------------||
||---------------------|---------------12-10--||
||o-----5-6-7-----8-10-|-----5-6-7-----10--8-o||
||--0-0-------0-0-6--8-|-0-0-------0-0--------||


 Repeat of F
  Gtr I
  E E E  E +E   E E E   E E Q  S S S S S E.
|---------------------|------------------------|
|---------------------|------------------------|
|---------------------|------------------------|
|---7-8--9-(9)\-------|------------------------|
|---5-6--7-(7)\-5-5-8-|---7-7------------------|
|-0-------------3-3-6-|---5-5--5-6-5-3-5-3b3.5-|
|
| Gtr III
| Q   H.                H      S S S S S E.
|---------------------|------------------------|
|---------------------|------------------------|
|---------------------|------------------------|
|-9-------------------|------------------------|
|-7-------------------|------------------------|
|-0-------------------|--------5-6-5-3-5-3b3.5-|


  Gtrs I, III
                             PM------------|
  E E E E +E   E E E   E E E S S E S S E S S
|--------------------|-----------------------|
|--------------------|-----------------------|
|--------------------|-----------------------|
|---7-8-9-(9)\-------|-----------------------|
|---5-6-7-(7)\-5-5-8-|---7-7-----------------|
|-0------------3-3-6-|---5-5-3-3-3-1-1-1-0-0-|


  PM
  E E E E +E   E E E   E E Q  S S S S S E.
|--------------------|------------------------|
|--------------------|------------------------|
|--------------------|------------------------|
|---7-8-9-(9)\-------|------------------------|
|---5-6-7-(7)\-5-5-8-|---7-7------------------|
|-0------------3-3-6-|---5-5--5-6-5-3-5-3b3.5-|


  PM            PM       PM|   PM
  E E +e  E +e  E S E.   E E E E S S E S S S S
|----------------------|-----------------------|
|----------------------|-----------------------|
|----------------------|-----------------------|
|---5-(5)-6-(6)---7s9--|-----5-----------------|
|---3-(3)-4-(4)---5s7--|-----5---5-5-5-3-3-3-3-|
|-0-3-(3)-4-(4)-0------|-7-5---0-3-3-3-1-1-1-1-|


 Tempo Change
  Q=220
  Gtr I
  E E E  E E E E E   E E E E E E S S E
|------------------|-------------------|
|------------------|-------------------|
|------------4-----|-------------------|
|-----2----------4-|---5---4---5-4h5p4-|
|-----2------------|-------------------|
|-0-0----0-0---0---|-0---0---0---------|
|
| Gtr III
| E E H.             W
|------------------|-------------------|
|------------------|-------------------|
|------------------|-------------------|
|------------------|-------------------|
|-2----------------|-------------------|
|-0----------------|-------------------|


  E E E E E E E E   E E E E E  E   S  S  E
|-----------------|---------------------------|
|-----------------|---------------------------|
|-----------4-----|-----------(5)-(4)(5)(4)---|
|-----2---------4-|---5---4----5---4h=5p=4----|
|-----2-----------|---------------------------|
|-0-0---0-0---0---|-0---0---0-----------------|
|
| W                 W
|-----------------|---------------------------|
|-----------------|---------------------------|
|-----------------|---------------------------|
|-----------------|---------------------------|
|-----------------|---------------------------|
|-----------------|---------------------------|


  E E E E E E E E   E E E E E E S S E   E E E E E E E E   E E E E +H
|-----------------|-------------------|-----------------|-----------------|
|-----------------|-------------------|-----------------|-----------------|
|-----------4-----|-------------------|-----------4-----|-----------------|
|-----2---------4-|---5---4---5-4h5p4-|-----2---------4-|---5---4-(4)\----|
|-----2-----------|-------------------|-----2-----------|-----------------|
|-0-0---0-0---0---|-0---0---0---------|-0-0---0-0---0---|-0---0-----------|


 Verse III
  Gtr I
  W                 W
|-----------------|-----------------|
|-----------------|-----------------|
|-----------------|-----------------|
|-----------------|-----------------|
|-----------------|-----------------|
|-----------------|-----------------|
|
| Gtrs II, III
| E E E E E E E E   E E E E E E E E
|-----------------|-----------------|
|-----------------|-----------------|
|-----------------|-----------------|
|-----9-----7-----|-9-----7-----9---|
|-----7-----5-----|-7-----5-----7---|
|-0-0---0-0---0-0-|---0-0---0-0---0-|


   W                    H.            Q
|--------------------|----------------------|
|--------------------|----------------------|
|--------------------|----------------------|
|--------------------|----------------9b10--|
|--------------------|----------------------|
|--------------------|----------------------|
|
|  E E E  E E E  E E    E  E E  E E E Q
|--------------------|----------------------|
|--------------------|----------------------|
|--------------------|----------------------|
|-10-----10-----10---|----------------7-----|
|--8------8------8---|-10------10-----5-----|
|----0-0----0-0----0-|--8--0-0--8-0-0-------|


                        |--3--|
  +H.               +E  S  S  S   H.           E T T T T
|-------------------------------|------------------------|
|-------------------------------|------------------------|
|-------------------------------|-9----------------------|
|-(9)pb10r==========(9)-9h10h12-|--------------6-7h9p7p6h|
|-------------------------------|------------------------|
|-------------------------------|------------------------|
|
|  E      E E E E E  E  E         E  E E E E E E E
|-------------------------------|------------------------|
|-------------------------------|------------------------|
|-------------------------------|------------------------|
|-----------9-----7-------------|-9------7-----9---------|
|-----------7-----5-------------|-7------5-----7---------|
|--0------0---0-0----0--0-------|----0-0---0-0---0-------|


                                           PM--|
                  |--3---|
   H.             E  E   E    H        +E  E E E
|--------------------------|-----------------------|
|--------------------------|-----------------------|
|--------------------------|-----------------------|
|--7-----------------------|-----------------------|
|-----------------8s10---7-|--8--------(8)---5-6---|
|--------------------------|---------------8-------|
|
|  E  E E  E E E  E    E      E E E  E  E  E Q
|--------------------------|-----------------------|
|--------------------------|-----------------------|
|--------------------------|-----------------------|
|-10------10-----10--------|-----------------7-----|
|--8-------8------8--------|-10-----10-------5-----|
|-----0-0----0-0-------0---|--8-0-0--8--0--0-------|


  W                 +W
|-----------------|-------------------|
|-----------------|-------------------|
|-----------------|-------------------|
|-----------------|-------------------|
|-7---------------|-(7)---------------|
|-----------------|-------------------|
|
| E E E E E E E E    E  E E E E E E E
|-----------------|-------------------|
|-----------------|-------------------|
|-----------------|-------------------|
|-----9-----7-----|--9------7-----9---|
|-----7-----5-----|--7------5-----7---|
|-0-0---0-0---0-0-|-----0-0---0-0---0-|


                                 TP  TP
   W                    Q.       E  +H
|--------------------|---------/12-(12)------|
|--------------------|-----------------------|
|--------------------|-----------------------|
|--------------------|-----------------------|
|--------------------|-----------------------|
|--------------------|-----------------------|
|
|  E E E  E E E  E E    E  E E   E   E  E Q
|--------------------|-----------------------|
|--------------------|-----------------------|
|--------------------|-----------------------|
|-10-----10-----10---|--------------------7--|
|--8------8------8---|-10-------10--------5--|
|----0-0----0-0----0-|--8--0-0---8---0--0----|


   TP TP TP TP TP TP TP TP TP TP TP TP TP TP TP TP
   S  S  S  S  S  S  S  S  S  S  S  S  S  S  S  S
|-12h13p12----------------------------------------|
|----------15p13p12-------12h13p12----------------|
|-------------------14-12----------14-12----------|
|----------------------------------------15-14-12-|
|-------------------------------------------------|
|-------------------------------------------------|
|
|  E     E     E     E     E     E     E     E
|-------------------------------------------------|
|-------------------------------------------------|
|-------------------------------------------------|
|--------------9-----------------7----------------|
|--------------7-----------------5----------------|
|--0-----0-----------0-----0-----------0-----0----|


   TP TP TP TP TP TP TP TP TP TP TP TP TP TP TP TP
   S  S  S  S  S  S  S  S  S  S  S  S  S  S  S  S
|-------------------------------------------------|
|-------------------------------------------------|
|-14-12-------------------------------------------|
|-------15-14-12----------15-14-12----------------|
|----------------15-14-12----------15-14-12-------|
|-------------------------------------------15-14-|
|
|  E     E     E     E     E     E     E     E
|-------------------------------------------------|
|-------------------------------------------------|
|-------------------------------------------------|
|--9-----------------7-----------------9----------|
|--7-----------------5-----------------7----------|
|--------0-----0-----------0-----0-----------0----|


   TP         TP TP TP TP TP TP TP TP
   H          S  S  S  S  S  S  S  S
|------------------------------------|
|------------------------------------|
|---------------------------------12-|
|------------------------12-13-14----|
|-12\--------12s10-12h14-------------|
|------------------------------------|
|
|  E  E E  E  E     E     E     E
|------------------------------------|
|------------------------------------|
|------------------------------------|
|-10------10-------------10----------|
|--8-------8--------------8----------|
|-----0-0-----0-----0-----------0----|


   TP TP TP TP TP TP TP TP TP TP TP TP TP
   S  S  S  S  S  S  S  S  S  S  S  S  S  S  +E
|-------------------------------12s15-15s19-(19)--|
|-------------------------12-15-------------------|
|-13-14-13-12----12-13-14-------------------------|
|-------------14----------------------------------|
|-------------------------------------------------|
|-------------------------------------------------|
|
|  E     E     E     E     E     E     Q
|-------------------------------------------------|
|-------------------------------------------------|
|-------------------------------------------------|
|--------------------------------------7----------|
|-10----------------10-----------------5----------|
|--8-----0-----0-----8-----0-----0----------------|


   +Q.      E H         W
|-(19)\---------------|-----------------|
|---------------------|-----------------|
|---------------------|-----------------|
|---------------------|-----------------|
|---------------------|-----------------|
|---------------------|-----------------|
|
|   E   E E E E E E E   E E E E E E E E
|---------------------|-----------------|
|---------------------|-----------------|
|---------------------|-----------------|
|---------9-----7-----|-9-----7-----9---|
|---------7-----5-----|-7-----5-----7---|
|---0---0---0-0---0-0-|---0-0---0-0---0-|


   W                    W
|--------------------|------------------|
|--------------------|------------------|
|--------------------|------------------|
|--------------------|------------------|
|--------------------|------------------|
|--------------------|------------------|
|
|  E E E  E E E  E E    E E E  E E E Q
|--------------------|------------------|
|--------------------|------------------|
|--------------------|------------------|
|-10-----10-----10---|---------------7--|
|--8------8------8---|-10-----10-----5--|
|----0-0----0-0----0-|--8-0-0--8-0-0----|


  E  E  E  E  H          +E   E  E   E    H
|---12-12-12-12-------|-(12)-----------------------|
|---------------------|------12-12-[12]-[12]-------|
|---------------------|----------------------------|
|---------------------|----------------------------|
|---------------------|----------------------------|
|---------------------|----------------------------|
|
| E  E  E  E  E E E E     E   E  E   E    E  E E E
|---------------------|----------------------------|
|---------------------|----------------------------|
|---------------------|----------------------------|
|-------9-------7-----|---9----------7---------9---|
|-------7-------5-----|---7----------5---------7---|
|-0--0-----0--0---0-0-|-------0--0--------0--0---0-|


     |-----3-----|                   |------3-------| |-----3-----|
    +Q      Q    Q      Q.      E    E E   E E E    E E E   E E E E
|---------------------------------|----------------------------------|
|-([12])---13---13----[13]------1S|=10p0h==8p0h6p===0h8p0h==6p0h5p0h=|
|---------------------------------|----------------------------------|
|---------------------------------|----------------------------------|
|---------------------------------|----------------------------------|
|---------------------------------|----------------------------------|
|
|    E   E    E     E   E  E  E E    E   E   E    E   E   E   Q
|---------------------------------|----------------------------------|
|---------------------------------|----------------------------------|
|---------------------------------|----------------------------------|
|---10-------------10--------10---|---------------------------7------|
|----8--------------8---------8---|-10-----------10-----------5------|
|--------0----0---------0--0----0-|--8---0---0----8---0---0----------|


  W                 +W                   W                    W
|-----------------|-------------------|--------------------|------------------|
|-5---------------|-(5)---------------|--------------------|------------------|
|-----------------|-------------------|--------------------|------------------|
|-----------------|-------------------|--------------------|------------------|
|-----------------|-------------------|--------------------|------------------|
|-----------------|-------------------|--------------------|------------------|
|
| E E E E E E E E    E  E E E E E E E    E E E  E E E  E E    E E E  E E E Q
|-----------------|-------------------|--------------------|------------------|
|-----------------|-------------------|--------------------|------------------|
|-----------------|-------------------|--------------------|------------------|
|-----9-----7-----|--9------7-----9---|-10-----10-----10---|---------------7--|
|-----7-----5-----|--7------5-----7---|--8------8------8---|-10-----10-----5--|
|-0-0---0-0---0-0-|-----0-0---0-0---0-|----0-0----0-0----0-|--8-0-0--8-0-0----|


      E5    D5      E5    D5    E5    F5     F5     F5     C5     C5     D5
  Gtrs II, III
  E E E E E E E E   E E E E E E E E    E E E  E E E  E E    E E E  E E E Q
|-----------------|-----------------|--------------------|------------------|
|-----------------|-----------------|--------------------|------------------|
|-----------------|-----------------|--------------------|------------------|
|-----9-----7-----|-9-----7-----9---|-10-----10-----10---|---------------7--|
|-----7-----5-----|-7-----5-----7---|--8------8------8---|-10-----10-----5--|
|-0-0---0-0---0-0-|---0-0---0-0---0-|----0-0----0-0----0-|--8-0-0--8-0-0----|


   Theme IV
    N.C.E5 N.C.
    Gtrs I, II
    E E Q  E E +E  E   +E  E +E  E +E  E S S E
||-------------------|-------------------------|
||o------------------|-------------------------|
||-----------4-(4)---|-------------------------|
||------2----------4-|-(4)-5-(5)-4-(4)-5-4h5p4-|
||o-----2------------|-------------------------|
||--0-0----0---------|-------------------------|


      F5 N.C.
  E E Q  E E +E  E   +E  E +E  E +E  E S S E
|------------------|--------------------------|
|------------------|--------------------------|
|----------5-(5)---|--------------------------|
|-----3----------4-|-(4)-5-(5)-7-(7)-5-4h5p4--|
|-----3------------|--------------------------|
|-0-0----0---------|--------------------------|


  N.C.E5 N.C.
  Gtr I
  E E Q  E E +E  E   +E  E +E  E +E  E S S E
|------------------|-------------------------|
|------------------|-------------------------|
|----------4-(4)---|-------------------------|
|-----2----------4-|-(4)-5-(5)-4-(4)-5-4h5p4-|
|-----2------------|-------------------------|
|-0-0----0---------|-------------------------|
|
| Gtr II
| E E Q  E E +E  E   +E  E +E  E +E  E S S E
|------------------|-------------------------|
|----------5-(5)---|-------------------------|
|----------------7-|-(7)-5-(5)-7-(7)-5-4h5p4-|
|-----2------------|-------------------------|
|-----2------------|-------------------------|
|-0-0----0---------|-------------------------|


      F5 N.C.
  E E Q  E E +E  E   +E  E +E  E +E  E S S E
|------------------|----------------------------||
|------------------|---------------------------o||
|----------5-(5)---|----------------------------||
|-----3----------4-|-(4)-5-(5)-7-(7)-5-4h5p4----||
|-----3------------|---------------------------o||
|-0-0----0---------|----------------------------||
|
| E E Q  E E +E  E   +E  E +E  E +E  E S S E
|------------------|----------------------------||
|----------5-(5)-4-|-(4)-5-(5)-6-(6)-5-4h5p4---o||
|------------------|----------------------------||
|-----3------------|----------------------------||
|-----3------------|---------------------------o||
|-0-0----0---------|----------------------------||


   Theme V
    E5         Eb5  E5 F#5G5 A5   B5                        BbA5
    Gtrs I, II
                                                          |-3-|
    Q  E E E E Q    Q  Q  Q  Q    Q  E E Q  E E   E E E E Q Q Q  4x
||----------------|-------------|---------------|----------------||
||o---------------|-------------|---------------|---------------o||
||----------------|-------------|---------------|----------------||
||-------------8--|-------------|---------------|----------------||
||o-2--x-x-x-x-6--|-2--4--5--7--|-9--x-x-9--x-x-|-x-x-x-x-9-8-7-o||
||--0--x-x-x-x-6--|-0--2--3--5--|-7--x-x-7--x-x-|-x-x-x-x-7-6-5--||


   Outro
    E5      Eb5  E5 F#5G5 A5   B5                   BbA5    E5
                                                  |-3-|
    H.      Q    Q  Q  Q  Q    H    H      +H     Q Q Q     H    H
||-------------|-------------|-----------|---------------||-----------*|
||o------------|-------------|-----------|--------------o||-----------*|
||-------------|-------------|-----------|---------------||-----------*|
||----------8--|-------------|-----------|---------------||-----------*|
||o-2-------6--|-2--4--5--7--|-9----9----|-(9)----9-8-7-o||-2---------*|
||--0-------6--|-0--2--3--5--|-7----7----|-(7)----7-6-5--||-0---------*|



Duration Legend
---------------
W - whole; H - half; Q - quarter; E - 8th; S - 16th; T - 32nd; X - 64th; a - acciaccatura
+ - note tied to previous; . - note dotted; .. - note double dotted
Uncapitalized letters represent notes that are staccato (1/2 duration)
Irregular groupings are notated above the duration line
Duration letters will always appear directly above the note/fret number it represents the
duration for.  Duration letters with no fret number below them represent rests.  Multi-
bar rests are notated in the form Wxn, where n is the number of bars to rest for.  Low
melody durations appear below the staff

Tablature Legend
----------------
 h   - hammer-on
 p   - pull-off
 b   - bend
 pb  - pre-bend
 r   - bend release (if no number after the r, then release immediately)
 /\  - slide into or out of (from/to "nowhere")
 s   - legato slide
 S   - shift slide
 - natural harmonic
[n]  - artificial harmonic
n(n) - tapped harmonic
 ~   - vibrato
 tr  - trill
 T   - tap
 TP  - trem. picking
 PM  - palm muting
\n/  - tremolo bar dip; n = amount to dip
 \n  - tremolo bar down
 n/  - tremolo bar up
/n\  - tremolo bar inverted dip
 =   - hold bend; also acts as connecting device for hammers/pulls
 <> - volume swell (louder/softer)
 x   - on rhythm slash represents muted slash
 o   - on rhythm slash represents single note slash

Misc Legend
-----------
 |  - bar
||  - double bar
||o - repeat start
o|| - repeat end
*|  - double bar (ending)
 :  - bar (freetime)
 $  - Segno
 &  - Coda
Tempo markers -  = BPM(8/16=s8/s16), where s8 = swing 8ths, s16 = swing 16ths

Tap to rate this tab
# A B C D E F G H I J K L M N O P Q R S T U V W X Y Z