Song name
# A B C D E F G H I J K L M N O P Q R S T U V W X Y Z

Megadeth - Endgame tab

This is my firt tab, so, be gentle ;)
Mail me at fuzatest@hotmail.fr if i missed something :D


E---------------------------------------------------------------|
B---------------------------------------------------------------|
G---------------------------------------------------------------|
D------5--------------4-------------5---------------------------|    X2
A----4--------------4-------------4--------------4--------------|
E-2------2-0-2-3-2-------3-2-0-2------2-0-2-3-2-----3-2-0-3-2-0-|


E---------------------------------------------------------------|
B---------------------------------------------------------------|
G---------------------------------------------------------------|
D------5--------------4-------------5---------------------------|    X2
A----4--------------4-------------4--------------4--------------|
E-2-----2-0-2-3-2------2-0-2-3-2------2-0-2-3-2-----3-2-0-3-2-0-|


E------------------------------------------------------------------------------------------------|
B------------------------------------------------------------------------------------------------|
G------------------------------------------------------------------------------------------------|
D--------------5----------------------4----------------------5-----------------------------------|X2
A--------4----------------------4----------------------4----------------------4------------------|
E-2--2-2---2-2---2-0-2-3-2--2-2---2-2---2-0-2-3-2--2-2---2-2---2-0-2-3-2--2-2---2-2-3-2-0-3-2-0--|


E-----------------------------------------------|
B-----------------------------------------------|
G-----------------------------------------------|
D-10--9--8--7--6-5--4--4-4-4-4-2--4--4-4-4-4-5--|    X3
A-10--9--8--7--6-5--4--4-4-4-4-2--4--4-4-4-4-5--|
E-8---7--6--5--4-3--2--2-2-2-2-0--2--2-2-2-2-3--|


E--------------------------------------------------|
B--------------------------------------------------|
G--------------------------------------------------|
D-10--9--8--7--6-5----4-4-4-4-4-4-4-4-4-4-4-4-4-5--|
A-10--9--8--7--6-5----4-4-4-4-4-4-4-4-4-4-4-4-4-5--|
E-8---7--6--5--4-3----2-2-2-2-2-2-2-2-2-2-2-2-2-3--|


E------------------------------------------------------------------|
B------------------------------------------------------------------|
G------------------------------------------------------------------|
D-2---------------9-8---------------9-8-2-4-5-2----------------7-9-|    X3
A-2---------------9-8---------------9-8-2-4-5-2----------------5-7-|
E-0--0-0-0--0-0-0-7-6--0-0-0--0-0-0-7-6-0-2-3-0--0-0-0--0-0-0------|


E--------------------------------------------------------------|
B--------------------------------------------------------------|
G--------------------------------------------------------------|
D-2---------------9-8---------------9-8-2-4-5-2----------------|
A-2---------------9-8---------------9-8-2-4-5-2----------------|
E-0--0-0-0--0-0-0-7-6--0-0-0--0-0-0-7-6-0-2-3-0--0-0-0--0-0-0--|


E--------------------------------------------------------------------|
B--------------------------------------------------------------------|
G--------------------------------------------------------------------|
D------------------------5---------------------------------4---------|    X4
A---------------4---------------------------------4------------------|
E-2-3-2--2-2-2----2-2-2-----2-2-2-0-2-3-2--2-2-2----2-2-2----2-2-2-0-|


E-----------------------------------------------|
B-----------------------------------------------|
G-----------------------------------------------|
D-10--9--8--7--6-5--4--4-4-4-4-2--4--4-4-4-4-5--|    X3
A-10--9--8--7--6-5--4--4-4-4-4-2--4--4-4-4-4-5--|
E-8---7--6--5--4-3--2--2-2-2-2-0--2--2-2-2-2-3--|


E------------------------------------------------|
B------------------------------------------------|
G------------------------------------------------|
D-10--9--8--7--6-5----4--4-4-4-4-4-4-4-4-4-4-4-5-|
A-10--9--8--7--6-5----4--4-4-4-4-4-4-4-4-4-4-4-5-|
E-8---7--6--5--4-3----2--2-2-2-2-2-2-2-2-2-2-2-3-|


E------------------------------------------------------------------|
B------------------------------------------------------------------|
G------------------------------------------------------------------|
D-2---------------9-8---------------9-8-2-4-5-2----------------7-9-|    X3
A-2---------------9-8---------------9-8-2-4-5-2----------------5-7-|
E-0--0-0-0--0-0-0-7-6--0-0-0--0-0-0-7-6-0-2-3-0--0-0-0--0-0-0------|


E--------------------------------------------------------------|
B--------------------------------------------------------------|
G--------------------------------------------------------------|
D-2---------------9-8---------------9-8-2-4-5-2----------------|
A-2---------------9-8---------------9-8-2-4-5-2----------------|
E-0--0-0-0--0-0-0-7-6--0-0-0--0-0-0-7-6-0-2-3-0--0-0-0--0-0-0--|


E--------------------------------------------------------------------|
B--------------------------------------------------------------------|
G--------------------------------------------------------------------|
D------------------------5---------------------------------4---------|   X4
A---------------4---------------------------------4------------------|
E-2-3-2--2-2-2----2-2-2-----2-2-2-0-2-3-2--2-2-2----2-2-2----2-2-2-0-|


E-----------------------------------------------|
B-----------------------------------------------|
G-----------------------------------------------|
D-10--9--8--7--6-5--4--4-4-4-4-2--4--4-4-4-4-5--|    X3
A-10--9--8--7--6-5--4--4-4-4-4-2--4--4-4-4-4-5--|
E-8---7--6--5--4-3--2--2-2-2-2-0--2--2-2-2-2-3--|


E------------------|
B------------------|
G------------------|
D-10--9--8--7--6-5-|
A-10--9--8--7--6-5-|
E-8---7--6--5--4-3-|


E-------------------------------------------------------------------------------------------------|
B-------------------------------------------------------------------------------------------------|
G-------------------------------------------------------------------------------------------------|
D---4---------4-------------------------------------4---------4----------------------------------X2
A-------------------------------------------------------------------------------------------------|
E-2---5-4-4-2---4-5-4-2--3-3-3--3-3-3-3--3-3-5-3--2---5-4-4-2---4-5-4-2--3-3-3--3-3-3-3--3-3-5-3--|


E----------------------------|
B----------------------------|
G----------------------------|
D-11-10-9--7-9--11-10-9--5-2-|     X4
A-11-10-9--5-7--11-10-9--5-2-|
E-9--8--7-------9--8--7--3-0-|


E------------------------------------------------------------------------------------------------|
B------------------------------------------------------------------------------------------------|
G------------------------------------------------------------------------------------------------|
D---4---------4-------------------------------------4---------4----------------------------------|X2
A------------------------------------------------------------------------------------------------|
E-2---5-4-4-2---4-5-4-2--3-3-3--3-3-3-3--3-3-5-3--2---5-4-4-2---4-5-4-2--3-3-3--3-3-3-3--3-3-5-3-|


E----------------------------|
B----------------------------|
G----------------------------|
D-11-10-9--7-9--11-10-9--5-2-|     X4
A-11-10-9--5-7--11-10-9--5-2-|
E-9--8--7-------9--8--7--3-0-|


E-------------------------------------------------------------------------------------|
B-------------------------------------------------------------------------------------|
G-------------------------------------------------------------------------------------|
D-------------------------------------------------------------------------------------|
A-------------------------------------------------------------------------------------|
E-2-2-2-2-2-2-2-2-2-2-2-2-2-2-2-2-2-2-2-2-2-2-2-2-2-2-2-2-2-2-2-2-2-2-4-4-4-4-4-4-4-4-|

--------------------------------------------------------|
--------------------------------------------------------|
--------------------------------------------------------|
--------------------------------------------------------|
--------------------------------------------------------|
4-4-4-4-4-4-4-4-4-4-4-4-4-4-4-4-4-4-4-4-4-4-4-4-4-4-4-4-|

E-------------------------------------------------------------------------------------------|
B-------------------------------------------------------------------------------------------|
G-------------------------------------------------------------------------------------------|
D-------------------------------------------------------------------------------------------|
A-------------------------------------------------------------------------------------------|
E-2-2-2-2-2-2-2-2-2-2-2-2-2-2-2-2-2-2-2-2-2-2-2-2-2-2-2-2-2-2-2-2-2-2-2-2-2-2-2-2-2-2-2-2-2-|

--------------------------------------------------|
--------------------------------------------------|
--------------------------------------------------|
--------------------------------------------------|
--------------------------------------------------|
2-2-2-2-2-2-2-2-2-2-2-2-2-2-2-2-2-2-2-2-2-2-2-2-2-|
Tap to rate this tab
 
# A B C D E F G H I J K L M N O P Q R S T U V W X Y Z