Song name
# A B C D E F G H I J K L M N O P Q R S T U V W X Y Z

Megadeth - The Hardest Part Is Letting Go Sealed With A Kiss tab

e|----------------------------------------------------------------------------|
B|----------------------------------------------------------------------------|
G|----------------------------------------------------------------------------|
D|-0--0--2--3--5--3--2------------------0--2--3--5--3--2----------------------|
A|----------------------5---4~-----------------------------4---3~-------------|
E|----------------------------------------------------------------------------|

e|---------------------------------------------------------------------------|
B|---------------------------------------------------------------------------|
G|---------------------------------------------------------------------------|
D|-0--2--3--5--3--2------------------2--3---5--3--2--------------------------|
A|-------------------3---2~---------------------------5--4--5----------------|
E|---------------------------------------------------------------------------|

do that four times on 2-4th times don't double open on the first part
on d sry if it's not right plus i cant tell the background
chords but all the same it sounds right to me and this is my absolute
first tab
 hope u like it :)
Tap to rate this tab
# A B C D E F G H I J K L M N O P Q R S T U V W X Y Z