Song name
# A B C D E F G H I J K L M N O P Q R S T U V W X Y Z

Megadeth - Bodies tab

-------------------------------------------------------------------------------
			    Bodies - Megadeth
-------------------------------------------------------------------------------
Tabbed by: Chris Rizzo 

Email: chrisrizzo@hotmail.com

Tuning: Standard

Special Notes: None. Though I welcome any corrections, improvements, or insights!


Riff 1: Verse

I get the feeling Dave may be throwing some inversions in here somewhere and I'm 
missing them. But this sounds close.

e|---------------------------------------------------------------------------|
B|---------------------------------------------------------------------------|
G|-----------------------------4---------------------------------------------|
D|---------------3-----------2-2---------------5-----------------------------|
A|-----2---3-2---1---2---3-2-2-----------------3-2---------------------------|
E|-0-0-0-0-1-0-0-----0-0-1-0---------rest----0---0---------------------------|
   x x   x     x       x                     x

e|---------------------------------------------------------------------------|
B|---------------------------------------------------------------------------|
G|---------------------------------------------------------------------------|
D|---------------3-----------------------------5-2---------------------------|
A|-----2---3-2---1---2---3-2-5\2-------------0-3-0---------------------------|
E|-0-0-0-0-1-0-0-----0-0-1-0-3\0-----rest------------------------------------|
   x x   x     x       x                     x


e|---------------------------------------------------------------------------|
B|---------------------------------------------------------------------------|
G|---------------3-----------------------------------------------------------|
D|-----2---3-2---1---2---3-2---2-------------0-3-----------------------------|
A|-0-0-0-0-1-0-0-----0-0-1-0-5\0-----rest------1-2---------------------------|
E|---------------------------3\------------------0---------------------------|
   x x   x     x       x                     x

e|---------------------------------------------------------------------------|
B|---------------------------------------------------------------------------|
G|-----------------------------4-----------------------------4---------------|
D|---------------3-----------2-2-----------------------------2---------------|
A|-----2---3-2---1---2---3-2-2---------2-3-----3-4-----4-3-------------------|
E|-0-0-0-0-1-0-0-----0-0-1-0-----0-0-0-0-1-0-0-1-2-0-0-2-1-0-----------------|
   x x   x     x       x         x x x     x x     x x     x

Riff 2: Bridge

Anyone think he's playing this on the higher strings instead of what I have below?

e|---------------------------------------------------------------------------|
B|---------------------------------------------------------------------------|
G|---------------------------------------------------------------------------|
D|---6-5-6-----------7-6-7-----9--7------------------------------------------|
A|---7-6-7---6-5-6---8-7-8-----10-8------------------------------------------|
E|-0-------0-7-6-7-0---------0-----------------------------------------------|
   x       x       x         x

e|---------------------------------------------------------------------------|
B|---------------------------------------------------------------------------|
G|---------------------------------------------------------------------------|
D|---6-5-6-----------7-6-7---------------------------------------------------|
A|---7-6-7---6-5-6---8-7-8---4-5-6-------------------------------------------|
E|-0-------0-7-6-7-0-------0-2-3-4-------------------------------------------|
   x       x       x       x x x x   

e|---------------------------------------------------------------------------|
B|---------------------------------------------------------------------------|
G|---------------------------------------------------------------------------|
D|---6-5-6-----------7-6-7-----9--7------------------------------------------|
A|---7-6-7---6-5-6---8-7-8-----10-8------------------------------------------|
E|-0-------0-7-6-7-0---------0-----------------------------------------------|
   x       x       x         x

e|---------------------------------------------------------------------------|
B|---------------------------------------------------------------------------|
G|---------------------------------------------------------------------------|
D|---6-5-6-------------------------------------------------------------------|
A|---7-6-7---6-5-6-------------------2---------------------------------------|
E|-0-------0-7-6-7-0-7-7-7-6-6-6-5-5-0---------------------------------------|
   x       x       x x x x x x x x x

Chrous: 

e|---------------------------------------------------------------------------|
B|---------------------------------------------------------------------------|
G|---------------------------------------------------------------------------|
D|---------------------------------------------------------------------------|
A|---------------------------------------------------------------------------|
E|--7-7-7-6-6-6-5-5-5-3-3----------------------------------------------------|
    x x x x x x x x x x x

e|---------------------------------------------------------------------------|
B|---------------------------------------------------------------------------|
G|---------------------------------------------------------------------------|
D|----5-9~------4-7-----2-5------0-4-0---------------------------------------|
A|-----------------------------------------3-7------2-5-2--------------------|
E|--0--------0--------0-------0----------0-------0--------0----3-5-6-7-6-5-3-|
                                                               x x x x x x x

e|---------------------------------------------------------------------------|
B|---------------------------------------------------------------------------|
G|---------------------------------------------------------------------------|
D|---------------------------------------------------------------------------|
A|---------------------------------------------------------------------------|
E|---------------------------------------------------------------------------|


| /  slide up
| \  slide down
| h  hammer-on
| p  pull-off
| ~  vibrato
| +  harmonic
| x  Mute note
===============================================================================
Tap to rate this tab
# A B C D E F G H I J K L M N O P Q R S T U V W X Y Z