Song name
# A B C D E F G H I J K L M N O P Q R S T U V W X Y Z

Megadeth - Bad Omen tab

#----------------------------------PLEASE NOTE---------------------------------#
#This file is the author's own work and represents their interpretation of the #
#song. You may only use this file for private study, scholarship, or research. #
#------------------------------------------------------------------------------#

BAD OMEN
As recorded by Megadeth
(From the 1986 Album PEACE SELLS..BUT WHO'S BYING?)

Transcribed by unregistered
	

Words and Music by Dave Mustaine
Arranged by Dave Mustaine

Gtr I (E A D G B E) - 'Untitled'
Gtr II (E A D G B E) - 'Gtr II'

 Intro
  Q=132
  Em            F#7/E              Em            F#7/E
 4/4
  Gtr I
  PM--|                            PM--|
  E E E E E E E E   E E +H.        E E E E E E E E   E E +H.
|-----------------|--------------|-----------------|------------|
|-------8---------|---7-(7)------|-------8---------|---7-(7)----|
|-----9---9-------|-9------------|-----9---9-------|-9----------|
|---9-------9---8-|--------------|---9-------9---8-|------------|
|-7-----------7---|--------------|-7-----------7---|------------|
|-----------------|--------------|-----------------|------------|
|
| Gtr II
| PM--|
| E E E E E E E E   E E +H.        E E E E E E E E   E E +H.
|-----------------|--------------|-----------------|------------|
|-------8---------|---7-(7)------|-------8---------|---7-(7)----|
|-----9---9-------|-9------------|-----9---9-------|-9----------|
|---9-------9---8-|--------------|---9-------9---8-|------------|
|-7-----------7---|--------------|-7-----------7---|------------|
|-----------------|--------------|-----------------|------------|


    F#7/E         F#7/E                 F#7/E         F#7/E
    PM--|                               PM--|
    E E E E E E E E   E E E E E E E E   E E E E E E E E   E E E E E E E E
||------------------|-----------------|-----------------|------------------||
||o-------8---------|---7-------------|-------8---------|---7-------------o||
||------9---9-------|-9---9---------9-|-----9---9-------|-9---9---------9--||
||----9-------9---8-|-------8---8-----|---9-------9---8-|-------8---8------||
||o-7-----------7---|---------7---7---|-7-----------7---|---------7---7---o||
||------------------|-----------------|-----------------|------------------||
|
|   PM--|                               PM--|
|   E E E E E E E E   E E E E E E E E   E E E E E E E E   E E E E E E E E
||------------------|-----------------|-----------------|------------------||
||o-------8---------|---7-------------|-------8---------|---7-------------o||
||------9---9-------|-9---9---------9-|-----9---9-------|-9---9---------9--||
||----9-------9---8-|-------8---8-----|---9-------9---8-|-------8---8------||
||o-7-----------7---|---------7---7---|-7-----------7---|---------7---7---o||
||------------------|-----------------|-----------------|------------------||


  E5      A#5         D5 C#5C5   E5
                       PM---|         PM----------------------|
                       |--3--|
  H.      Q    +H      Q  Q  Q   H    E E E E   E E E E E E E E
|------------|-----------------|--------------|-----------------|
|------------|--------15-14-13-|--------------|-----------------|
|-9-------3--|-(3)----14-13-12-|-9------------|-----------------|
|-9-------3--|-(3)----12-11-10-|-9------------|-----------------|
|-7-------1--|-(1)-------------|-7------------|-----------------|
|------------|-----------------|------6-7-6-7-|-6-7-6-7-6-3-5-3-|
|
|                      PM---|         PM----------------------|
|                      |--3--|
| H.      Q    +H      Q  Q  Q   H    E E E E   E E E E E E E E
|------------|-----------------|--------------|-----------------|
|------------|--------15-14-13-|--------------|-----------------|
|-9----------|--------14-13-12-|-9----x-x-x-x-|-x-x-x-x-x-x-x-x-|
|-9-------8--|-(8)----12-11-10-|-9----x-x-x-x-|-x-x-x-x-x-x-x-x-|
|-7-------8--|-(8)-------------|-7----x-x-x-x-|-x-x-x-x-x-x-x-x-|
|---------6--|-(6)-------------|--------------|-----------------|


  E5      A#5         D5 C#5C5
                       PM---|         PM----------------------|
                       |--3--|
  H.      Q    +H      Q  Q  Q   H    E E E E   E E E E E E E E
|------------|-----------------|--------------|-----------------|
|------------|--------15-14-13-|--------------|-----------------|
|-9-------3--|-(3)----14-13-12-|-9------------|-----------------|
|-9-------3--|-(3)----12-11-10-|-9------------|-----------------|
|-7-------1--|-(1)-------------|-7------------|-----------------|
|------------|-----------------|------6-7-6-7-|-6-7-6-7-6-3-5-3-|
|
|                      PM---|         PM----------------------|
|                      |--3--|
| H.      Q    +H      Q  Q  Q   H    E E E E   E E E E E E E E
|------------|-----------------|--------------|-----------------|
|------------|--------15-14-13-|--------------|-----------------|
|-9----------|--------14-13-12-|-9----x-x-x-x-|-x-x-x-x-x-x-x-x-|
|-9-------8--|-(8)----12-11-10-|-9----x-x-x-x-|-x-x-x-x-x-x-x-x-|
|-7-------8--|-(8)-------------|-7----x-x-x-x-|-x-x-x-x-x-x-x-x-|
|---------6--|-(6)-------------|--------------|-----------------|


  Em            F#7/E                 Em             F#7/E
  PM--|                                PM--|
  E E E E E E E E   E E E E E E E E    E E E E E E E E   E E E E E E E E
|-----------------|-----------------|------------------|------------------|
|-------8---------|---7-------------|--------8---------|---7--------------|
|-----9---9-------|-9---9---------9-|------9---9-------|-9---9---------9--|
|---9-------9---8-|-------8---8-----|----9-------9---8-|-------8---8------|
|-7-----------7---|---------7---7---|--7-----------7---|---------7---7----|
|-----------------|-----------------|------------------|------------------|
|
| W                 W                  H       H         W
|-----------------|-----------------|-12---------------|------------------|
|-----------------|-----------------|------------------|------------------|
|-----------------|-----------------|------------------|------------------|
|-----------------|-----------------|------------------|------------------|
|-----------------|-----------------|------------------|------------------|
|-----------------|-----------------|------------------|------------------|


  Em             F#7/E                 Em             Em
   PM--|                                PM--|
   E E E E E E E E   E E E E E E E E    E E E E E E E E   E E E E E E E E
|------------------|-----------------|------------------|------------------|
|--------8---------|---7-------------|--------8---------|---7--------------|
|------9---9-------|-9---9---------9-|------9---9-------|-9---9---------9--|
|----9-------9---8-|-------8---8-----|----9-------9---8-|-------8---8------|
|--7-----------7---|---------7---7---|--7-----------7---|---------7---7----|
|------------------|-----------------|------------------|------------------|
|
|  H       H         W                  H       H         W
|-16---------------|-----------------|-16---------------|------------------|
|------------------|-----------------|------------------|------------------|
|------------------|-----------------|------------------|------------------|
|------------------|-----------------|------------------|------------------|
|------------------|-----------------|------------------|------------------|
|------------------|-----------------|------------------|------------------|


  E5      A#5         D5 C#5C5   E5
                       PM---|         PM----------------------|
                       |--3--|
  H.      Q    +H      Q  Q  Q   H    E E E E   E E E E E E E E
|------------|-----------------|--------------|-----------------|
|------------|--------15-14-13-|--------------|-----------------|
|-9-------3--|-(3)----14-13-12-|-9------------|-----------------|
|-9-------3--|-(3)----12-11-10-|-9------------|-----------------|
|-7-------1--|-(1)-------------|-7------------|-----------------|
|------------|-----------------|------6-7-6-7-|-6-7-6-7-6-3-5-3-|
|
|                      PM---|         PM----------------------|
|                      |--3--|
| H.      Q    +H      Q  Q  Q   H    E E E E   E E E E E E E E
|------------|-----------------|--------------|-----------------|
|------------|--------15-14-13-|--------------|-----------------|
|-9----------|--------14-13-12-|-9------------|-----------------|
|-9-------8--|-(8)----12-11-10-|-9------------|-----------------|
|-7-------8--|-(8)-------------|-7------------|-----------------|
|---------6--|-(6)-------------|------6-7-6-7-|-6-7-6-7-6-3-5-3-|


  E5      A#5         D#5C#5C5
                       PM---|         PM----------------------|
                       |--3--|
  H.      Q    +H      Q  Q  Q   H    E E E E   E E E E E E E E
|------------|-----------------|--------------|-----------------|
|------------|--------15-14-13-|--------------|-----------------|
|-9-------3--|-(3)----14-13-12-|-9------------|-----------------|
|-9-------3--|-(3)----12-11-10-|-9------------|-----------------|
|-7-------1--|-(1)-------------|-7------------|-----------------|
|------------|-----------------|------6-7-6-7-|-6-7-6-7-6-3-5-3-|
|
|                      PM---|         PM----------------------|
|                      |--3--|
| H.      Q    +H      Q  Q  Q   H    E E E E   E E E E E E E E
|------------|-----------------|--------------|-----------------|
|------------|--------15-14-13-|--------------|-----------------|
|-9----------|--------14-13-12-|-9------------|-----------------|
|-9-------8--|-(8)----12-11-10-|-9------------|-----------------|
|-7-------8--|-(8)-------------|-7------------|-----------------|
|---------6--|-(6)-------------|------6-7-6-7-|-6-7-6-7-6-3-5-3-|


 Guitar solo
  E5                                        A#5
  H.                                        Q
|--------------------------------------------------------|
|--------------------------------------------------------|
|-9------------------------------------------------------|
|-9-----------------------------------------8------------|
|-7-----------------------------------------8------------|
|-------------------------------------------6------------|
|
|    |--3--| |------6------| |-----6------| |----6-----|
| E  S  S  S S  S  S S  S  S S  S S  S  S S S S S S  S S
|--------------------------------------------------------|
|-----------------------------------------------7-8-10-9-|
|---------------------------------9---------8-9----------|
|------------9---------------9-10---12-10-9--------------|
|----9-10-12---12-10-9-10-12-----------------------------|
|--------------------------------------------------------|


  +W
|------------------------------------------------------------------|
|------------------------------------------------------------------|
|------------------------------------------------------------------|
|-(8)--------------------------------------------------------------|
|-(8)--------------------------------------------------------------|
|-(6)--------------------------------------------------------------|
|
|  |------6------|  |------6-------|  |------6-------| |----6----|
|  S  S S  S  S  S  S  S  S  S  S  S  S  S  S  S  S  S S S S S S S
|------------------------------------------------------------------|
|--8--7-9-10-11-12-13-12-11-10-------------10-12-11-10-9-----------|
|------------------------------12-11-10-12---------------9-8-7-6---|
|----------------------------------------------------------------9-|
|------------------------------------------------------------------|
|------------------------------------------------------------------|


  E5                       A#5
  H.                       Q       +W
|--------------------------------|----------------------------|
|--------------------------------|----------------------------|
|-9------------------------------|----------------------------|
|-9------------------------8-----|-(8)------------------------|
|-7------------------------8-----|-(8)------------------------|
|--------------------------6-----|-(6)------------------------|
|
|               ~~~
| |----6-----|      |-3--| |-3-|    |--3--|  |3-|
| S  S S S S S +Q   E E  E E E E    E  E  E  E  Q  Q.    E
|--------------------------------|----------12S16-16----16b18-|
|--------------------------------|-----9-12-------------------|
|------------------------------7S|==9-------------------------|
|-8--7-6-------------------7-9---|----------------------------|
|--------7-6-5-(5)----7-10-------|----------------------------|
|--------------------------------|----------------------------|


  E5               A#5
    H.              Q         +W
|---------------------------|-----------------------|
|---------------------------|-----------------------|
|---9-----------------------|-----------------------|
|---9---------------8-------|-(8)-------------------|
|---7---------------8-------|-(8)-------------------|
|-------------------6-------|-(6)-------------------|
|
|                              \1/
|  +H      E     E  S  E.      E    S  S     +H.
|-(16)----15b17-15-12-------|-12---12---------------|
|---------------------------|---------14b15-(14)----|
|---------------------15b17-|-----------------------|
|---------------------------|-----------------------|
|---------------------------|-----------------------|
|---------------------------|-----------------------|


  E5
 3/4
   H.
|---------------------------------------------|
|---------------------------------------------|
|--9------------------------------------------|
|--9------------------------------------------|
|--7------------------------------------------|
|---------------------------------------------|
|
|  |-----6------|  |----6----|  |-----6-----|
|  E   S  S  S  S  S  S  E.  S  E  S  S  S  S
|---------------------------------------------|
|-15--13-12-------15-13-12--13-15-13-12-------|
|-----------14-12-----------------------14-12-|
|---------------------------------------------|
|---------------------------------------------|
|---------------------------------------------|


  A#5              C5
 2/4
   Q                Q
|---------------------------------------|
|---------------------------------------|
|---------------------------------------|
|--8---------------10-------------------|
|--8---------------10-------------------|
|--6----------------8-------------------|
|
|  |--3--|
|  S  S  S S  T  T  T T  T  T T  T  T T
|---------------------------------------|
|-12---------10-------------------------|
|----14-12------12-10-9-----------------|
|-----------------------12-10-9---------|
|-------------------------------12-10-8-|
|---------------------------------------|


  E5                     F#5G5                      F#5G5
 4/4
   W           +H     Q   E  E   W          H    Q   E  E
|-----------|------------------|----------|----------------|
|-----------|------------------|----------|----------------|
|--9--------|--(9)-------11-12-|----------|---------11-12--|
|--9--------|--(9)-------11-12-|----------|---------11-12--|
|--7--------|--(7)--------9-10-|----------|----------9-10--|
|--0--------|--(0)-------------|----------|----------------|
|
|  W           +H     H          W          W
|-----------|------------------|----------|----------------|
|-----------|------------------|----------|----------------|
|-----------|------------------|----------|----------------|
|-14--------|-(14)-------------|----------|----------------|
|-14--------|-(14)-------------|----------|----------------|
|-12--------|-(12)-------------|----------|----------------|


   Break
                                                                 F#5G5
    S S S S S S  S S S S S S S S S  S   S S S S S S  S S S S S S  E  E
||------------------------------------|---------------------------------||
||o-----------------------------------|--------------------------------o||
||------------------------------------|--------------------------11-12--||
||------------------------------------|--------------------------11-12--||
||o-x-x-x-x-x-x--x-x-x-x-x-x-x-x-x--x-|-x-x-x-x-x-x--x-x-x-x-x-x--9-10-o||
||--x-x-x-x-x-x--x-x-x-x-x-x-x-x-x--x-|-x-x-x-x-x-x--x-x-x-x-x-x--------||
|
|   S S S S E    S S Q       E   S  S   S S S S E    S S Q        E  E
||------------------------------------|---------------------------------||
||o-----------------------------------|--------------------------------o||
||------------------------------------|--------------------------11-12--||
||---------------------------8---8S=9-|--------------------------11-12--||
||o-------5-----10p7---------9---9S10-|-------5-----10S7----------9-10-o||
||--7-5-7-----------------------------|-7-5-7---------------------------||


   Verse
    F#5    G5 F#5                              G5 F#5
     Q   E  S  S S   S E    Q            Q   E  S  S H
||------------------------------------|------------------------------|
||o-----------------------------------|------------------------------|
||--11--11-12-11----11----------------|-11--11-12-11-----------------|
||--11--11-12-11----11----------------|-11--11-12-11-----------------|
||o--9---9-10--9-----9----------------|--9---9-10--9-----------------|
||------------------------------------|------------------------------|
|
|    H           E.       S S  S  S S    H           E.  S S  S  S S
||------------------------------------|------------------------------|
||o-----------------------------------|------------------------------|
||------------------------------------|------------------------------|
||------------------------------------|------------------------------|
||o----------------------10-9---------|-----------------10-9---------|
||----------------------------12-10-9-|----------------------12-10-9-|


         G5 F#5                              G5 F#5
   Q   E  S  S S   S E    Q            Q   E  S  S H                 3x
|-----------------------------------|--------------------------------||
|-----------------------------------|-------------------------------o||
|-11--11-12-11----11----------------|-11--11-12-11-------------------||
|-11--11-12-11----11----------------|-11--11-12-11-------------------||
|--9---9-10--9-----9----------------|--9---9-10--9------------------o||
|-----------------------------------|--------------------------------||
|
|  H           E.       S S  S  S S    H           E.  S S  S  S S   3x
|-----------------------------------|--------------------------------||
|-----------------------------------|-------------------------------o||
|-----------------------------------|--------------------------------||
|-----------------------------------|--------------------------------||
|----------------------10-9---------|-----------------10-9----------o||
|---------------------------12-10-9-|----------------------12-10-9---||


   Break
                                                                 F#5G5
    S S S S S S  S S S S S S S S S  S   S S S S S S  S S S S S S  E  E
||------------------------------------|---------------------------------||
||o-----------------------------------|--------------------------------o||
||------------------------------------|--------------------------11-12--||
||------------------------------------|--------------------------11-12--||
||o-x-x-x-x-x-x--x-x-x-x-x-x-x-x-x--x-|-x-x-x-x-x-x--x-x-x-x-x-x--9-10-o||
||--x-x-x-x-x-x--x-x-x-x-x-x-x-x-x--x-|-x-x-x-x-x-x--x-x-x-x-x-x--------||
|
|   S S S S E    S S Q       E   S  S   S S S S E    S S Q        E  E
||------------------------------------|---------------------------------||
||o-----------------------------------|--------------------------------o||
||------------------------------------|--------------------------11-12--||
||---------------------------8---8S=9-|--------------------------11-12--||
||o-------5-----10p7---------9---9S10-|-------5-----10S7----------9-10-o||
||--7-5-7-----------------------------|-7-5-7---------------------------||


   Verse
    F#5    G5 F#5                              G5 F#5
     Q   E  S  S S   S E    Q            Q   E  S  S H
||------------------------------------|------------------------------|
||o-----------------------------------|------------------------------|
||--11--11-12-11----11----------------|-11--11-12-11-----------------|
||--11--11-12-11----11----------------|-11--11-12-11-----------------|
||o--9---9-10--9-----9----------------|--9---9-10--9-----------------|
||------------------------------------|------------------------------|
|
|    H           E.       S S  S  S S    H           E.  S S  S  S S
||------------------------------------|------------------------------|
||o-----------------------------------|------------------------------|
||------------------------------------|------------------------------|
||------------------------------------|------------------------------|
||o----------------------10-9---------|-----------------10-9---------|
||----------------------------12-10-9-|----------------------12-10-9-|


         G5 F#5                              G5 F#5
   Q   E  S  S S   S E    Q            Q   E  S  S H
|-----------------------------------|--------------------------------||
|-----------------------------------|-------------------------------o||
|-11--11-12-11----11----------------|-11--11-12-11-------------------||
|-11--11-12-11----11----------------|-11--11-12-11-------------------||
|--9---9-10--9-----9----------------|--9---9-10--9------------------o||
|-----------------------------------|--------------------------------||
|
|  H           E.       S S  S  S S    H           E.  S S  S  S S
|-----------------------------------|--------------------------------||
|-----------------------------------|-------------------------------o||
|-----------------------------------|--------------------------------||
|-----------------------------------|--------------------------------||
|----------------------10-9---------|-----------------10-9----------o||
|---------------------------12-10-9-|----------------------12-10-9---||


                                                                 F#5G5
    S S S S S S  S S S S S S S S S  S   S S S S S S  S S S S S S  E  E
||------------------------------------|---------------------------------||
||o-----------------------------------|--------------------------------o||
||------------------------------------|--------------------------11-12--||
||------------------------------------|--------------------------11-12--||
||o-x-x-x-x-x-x--x-x-x-x-x-x-x-x-x--x-|-x-x-x-x-x-x--x-x-x-x-x-x--9-10-o||
||--x-x-x-x-x-x--x-x-x-x-x-x-x-x-x--x-|-x-x-x-x-x-x--x-x-x-x-x-x--------||
|
|   S S S S E    S S Q       E   S  S   S S S S E    S S Q        E  E
||------------------------------------|---------------------------------||
||o-----------------------------------|--------------------------------o||
||------------------------------------|--------------------------11-12--||
||---------------------------8---8S=9-|--------------------------11-12--||
||o-------5-----10p7---------9---9S10-|-------5-----10S7----------9-10-o||
||--7-5-7-----------------------------|-7-5-7---------------------------||


 Break
  D5  D#5         E5          E#5
      |----6----| |----6----| |----6----|
   Q  S S S S S S S S S S S S S S S S S S
|-----------------------------------------|
|--3--------------------------------------|
|--2--4-4-4-4-4-4-5-5-5-5-5-5-6-6-6-6-6-6-|
|--0--3-3-3-3-3-3-4-4-4-4-4-4-5-5-5-5-5-5-|
|-----1-1-1-1-1-1-2-2-2-2-2-2-3-3-3-3-3-3-|
|-----------------------------------------|
|
|  Q  Q           H
|-----------------------------------------|
|-----------------------------------------|
|-11--------------------------------------|
|-11--------------------------------------|
|--9--------------------------------------|
|-----------------------------------------|


  F#5          G5          G#5         A5
   |----6----| |----6----| |----6----|  |------6-------|
   S S S S S S S S S S S S S S S S S S  S  S  S  S  S  S
|--------------------------------------------------------|
|--------------------------------------------------------|
|--7-7-7-7-7-7-8-8-8-8-8-8-9-9-9-9-9-9-10-10-10-10-10-10-|
|--6-6-6-6-6-6-7-7-7-7-7-7-8-8-8-8-8-8--9--9--9--9--9--9-|
|--4-4-4-4-4-4-5-5-5-5-5-5-6-6-6-6-6-6--7--7--7--7--7--7-|
|--------------------------------------------------------|
|
|  Q           Q           H
|--------------------------------------------------------|
|--------------------------------------------------------|
|-11-----------------------------------------------------|
|-11-----------------------------------------------------|
|--9-----------------------------------------------------|
|--------------------------------------------------------|


  A#5               B5                B#5               C#5
   |------6-------|  |------6-------|  |------6-------|  |------6-------|
   S  S  S  S  S  S  S  S  S  S  S  S  S  S  S  S  S  S  S  S  S  S  S  S
|-------------------------------------------------------------------------|
|-------------------------------------------------------------------------|
|-11-11-11-11-11-11-12-12-12-12-12-12-13-13-13-13-13-13-14-14-14-14-14-14-|
|-10-10-10-10-10-10-11-11-11-11-11-11-12-12-12-12-12-12-13-13-13-13-13-13-|
|--8--8--8--8--8--8--9--9--9--9--9--9-10-10-10-10-10-10-11-11-11-11-11-11-|
|-------------------------------------------------------------------------|
|
|  Q                 Q                 H
|-------------------------------------------------------------------------|
|-------------------------------------------------------------------------|
|-11----------------------------------------------------------------------|
|-11----------------------------------------------------------------------|
|--9----------------------------------------------------------------------|
|-------------------------------------------------------------------------|


  D5                D#5                     E#5                  F#5
   |--------6--------|  |--------6--------|  |--------6--------|  |------6-------|
   S  S  S  S  S     S  S  S  S  S  S     S  S  S  S  S  S     S  S  S  S  S  S  S
|-----------------------------------------------------------------------------------|
|-----------------------------------------------------------------------------------|
|-15-15-15-15-15----15-16-16-16-16-16----16-18-18-18-18-18----18-19-19-19-19-19-19--|
|-14-14-14-14-14----14-15-15-15-15-15----15-17-17-17-17-17----17-18-18-18-18-18-18--|
|-12-12-12-12-12----12-13-13-13-13-13----13-15-15-15-15-15----15-16-16-16-16-16-16--|
|-----------------------------------------------------------------------------------|
|
|  E        S     S     E        S     S     E        S     S     Q
|----------18p===15-------------19p===16-------------20p===17-----------------------|
|-----------------------------------------------------------------------------------|
|----------------------15-------------------16-------------------17-----------------|
|-----------------------------------------------------------------------------------|
|-----------------------------------------------------------------------------------|
|-----------------------------------------------------------------------------------|


 Guitar solo
  E5                                            E5
   E    S S  S      S S S  S    S S S  S    S S S
|-------------------------------------------------|
|-------------------------------------------------|
|--9----x-x--x------x-x-x--x----x-x-x--x----x-x-9-|
|--9----x-x--x------x-x-x--x----x-x-x--x----x-x-9-|
|--7----x-x--x------x-x-x--x----x-x-x--x----x-x-7-|
|-------------------------------------------------|
|
|  Q         Q             Q           Q
|-24b27-----24b27.5-------24b27-------24b27-------|
|-------------------------------------------------|
|-------------------------------------------------|
|-------------------------------------------------|
|-------------------------------------------------|
|-------------------------------------------------|


  +E     S    S  S S    S    S  S S    S    S  S S    S    S
|-------------------------------------------------------------|
|-------------------------------------------------------------|
|-(9)----x----x--x-x----x----x--x-x----x----x--x-x----x----9--|
|-(9)----x----x--x-x----x----x--x-x----x----x--x-x----x----9--|
|-(7)----x----x--x-x----x----x--x-x----x----x--x-x----x----7--|
|-------------------------------------------------------------|
|
|  |---3----|    |----3----|    |----3----|    |----3----|
|  E   E    E    E    E    E    E    E    E    E    E    E
|-24--22---21---22---21---19---21---19---17---19---17---16----|
|-------------------------------------------------------------|
|-------------------------------------------------------------|
|-------------------------------------------------------------|
|-------------------------------------------------------------|
|-------------------------------------------------------------|


                                                          E5
  +E     S    S  S S    S    S  S S    S    S  S S    S   S
|-----------------------------------------------------------|
|-----------------------------------------------------------|
|-(9)----x----x--x-x----x----x--x-x----x----x--x-x----x---9-|
|-(9)----x----x--x-x----x----x--x-x----x----x--x-x----x---9-|
|-(7)----x----x--x-x----x----x--x-x----x----x--x-x----x---7-|
|-----------------------------------------------------------|
|
|  |---3----|    |----3----|    |----3----|    |---3----|
|  E   E    E    E    E    E    E    E    E    E    E   E
|-17--16---14---16---14---12---14---12---10---12---10---9---|
|-----------------------------------------------------------|
|-----------------------------------------------------------|
|-----------------------------------------------------------|
|-----------------------------------------------------------|
|-----------------------------------------------------------|


  +E    S    S S S    S    S  S S    S   S  S S   S    S
|----------------------------------------------------------|
|----------------------------------------------------------|
|-(9)---x----x-x-x----x----x--x-x----x---x--x-x---x----x---|
|-(9)---x----x-x-x----x----x--x-x----x---x--x-x---x----x---|
|-(7)---x----x-x-x----x----x--x-x----x---x--x-x---x----x---|
|----------------------------------------------------------|
|
|  |---3---|   |----3----|    |---3----|    |---3----|
|  E  E    E   E    E    E    E    E   E    E   E    E
|-10--9--------9-------------------------------------------|
|---------12-------12---10---12---10---9---10---9----------|
|---------------------------------------------------11-----|
|----------------------------------------------------------|
|----------------------------------------------------------|
|----------------------------------------------------------|


  S  S S S E   S S Q  E S  S
|----------------------------|
|----------------------------|
|----------------------------|
|---------------------8-8--9-|
|--------5----10p7----9-9-10-|
|-7--5-7---------------------|
|
| Q        H.
|----------------------------|
|----------------------------|
|-9\-------------------------|
|----------------------------|
|----------------------------|
|----------------------------|


                     F#5G5                     F#5G5
  S  S S S E  S S Q   E  E   S S S S E  S S Q   E  E
|--------------------------|-------------------------|
|--------------------------|-------------------------|
|--------------------11-12-|-------------------11-12-|
|--------------------11-12-|-------------------11-12-|
|--------5---10p7-----9-10-|-------5---10p7-----9-10-|
|-7--5-7-------------------|-7-5-7-------------------|
|
| H.                  E  E   W
|--------------------------|-------------------------|
|--------------------------|-------------------------|
|--------------------11-12-|-------------------------|
|--------------------11-12-|-------------------------|
|---------------------9-10-|-------------------------|
|--------------------------|-------------------------|


 Break
                     F#5G5
  S  S S S E  S S Q   E  S  S   E. S +E  E +S  E. E  E
|-----------------------------|------------------------|
|-----------------------------|------------------------|
|-----------------------------|------------------------|
|---------------------8--8--9-|----9-(9)---------------|
|--------5---10p7-----9--9-10-|-7--------7-(7)----9-10-|
|-7--5-7----------------------|----------------7-------|
|
| H.                  E  E      E. S +E  E +S  E. E  E
|-----------------------------|------------------------|
|-----------------------------|------------------------|
|--------------------11-12----|------------------------|
|--------------------11-12----|----9-(9)---------------|
|---------------------9-10----|-7--------7-(7)----9-10-|
|-----------------------------|----------------7-------|


                    F#G    E5
                          3/4
  E. S +E  E +S  E. E  E   Q  H
|------------------------|---------|
|------------------------|---------|
|-------------------6--7-|-9-------|
|----9-(9)----------8--9-|-9-------|
|-7--------7-(7)----9-10-|-7-------|
|----------------7-------|---------|
|
| E. S +E  E +S  E. E  E   Q  H
|------------------------|---------|
|------------------------|---------|
|-------------------6--7-|-9-------|
|----9-(9)----------8--9-|-9-------|
|-7--------7-(7)----9-10-|-7-------|
|----------------7-------|---------|


 Guitar solo
  E5
 4/4
   E    S S S S S S  E    S S S S S S
|-------------------------------------|
|-------------------------------------|
|--9----x-x-x-x-x-x--x----x-x-x-x-x-x-|
|--9----x-x-x-x-x-x--x----x-x-x-x-x-x-|
|--7----x-x-x-x-x-x--x----x-x-x-x-x-x-|
|-------------------------------------|
|
|  H                 H
|-24b27-------------24b27-------------|
|-------------------------------------|
|-------------------------------------|
|-------------------------------------|
|-------------------------------------|
|-------------------------------------|


  E5
   E    S       S S S       S S  E    S S S S S S
|-------------------------------------------------|
|-------------------------------------------------|
|--9----x-------x-x-x-------x-x--x----x-x-x-x-x-x-|
|--9----x-------x-x-x-------x-x--x----x-x-x-x-x-x-|
|--7----x-------x-x-x-------x-x--x----x-x-x-x-x-x-|
|-------------------------------------------------|
|
|  |---------3---------|
|  Q       Q           Q         H
|-24b27---24b27-------24b26-----24b26-------------|
|-------------------------------------------------|
|-------------------------------------------------|
|-------------------------------------------------|
|-------------------------------------------------|
|-------------------------------------------------|


  E5
   E    S S S S S S E S S S S S S
|---------------------------------|
|---------------------------------|
|--9----x-x-x-x-x-x-x-x-x-x-x-x-x-|
|--9----x-x-x-x-x-x-x-x-x-x-x-x-x-|
|--7----x-x-x-x-x-x-x-x-x-x-x-x-x-|
|---------------------------------|
|
|  W
|-24b27---------------------------|
|---------------------------------|
|---------------------------------|
|---------------------------------|
|---------------------------------|
|---------------------------------|


  D5                B5               A#5              D5                B5               A#5
   |----------------3----------------|                 |----------------3----------------|
   Q                Q                Q                 Q                Q                Q
|-----------------------------------------------------------------------------------------------------------|
|-----------------------------------------------------------------------------------------------------------|
|-----------------------------------------------------------------------------------------------------------|
|-12----------------9----------------8----------------12----------------9----------------8------------------|
|-12----------------9----------------8----------------12----------------9----------------8------------------|
|-10----------------7----------------6----------------10----------------7----------------6------------------|
|
|  T  T  T  T  T  T    T  T  T  T  T    T  T  T  T  T  T  T  T  T  T  T    T  T  T  T  T    T  T  T  T  T
|-23p20-24p20-23p20---24p20-23p20-24p==20-23p20-24p20-23p20-24p20-23p20---24p20-23p20-24p==20-23p20-24p20---|
|-----------------------------------------------------------------------------------------------------------|
|-----------------------------------------------------------------------------------------------------------|
|-----------------------------------------------------------------------------------------------------------|
|-----------------------------------------------------------------------------------------------------------|
|-----------------------------------------------------------------------------------------------------------|


  E5
   E           S     S     S     S     S     S     E           S     S     S     S     S     S
|-------------------------------------------------------------------------------------------------|
|-------------------------------------------------------------------------------------------------|
|--9-----------x-----x-----x-----x-----x-----x-----x-----------x-----x-----x-----x-----x-----x----|
|--9-----------x-----x-----x-----x-----x-----x-----x-----------x-----x-----x-----x-----x-----x----|
|--7-----------x-----x-----x-----x-----x-----x-----x-----------x-----x-----x-----x-----x-----x----|
|-------------------------------------------------------------------------------------------------|
|
|  T  T  T  T  T  T  T  T  T  T  T  T  T  T  T  T  T  T  T  T  T  T  T  T  T  T  T  T  T  T  T  T
|-22p19-24p19-22p19-24p19-21p18-23p18-20p17-22p17-19p16-21p16-19p16-21p16-18p15-20p15-18p15-20p15-|
|-------------------------------------------------------------------------------------------------|
|-------------------------------------------------------------------------------------------------|
|-------------------------------------------------------------------------------------------------|
|-------------------------------------------------------------------------------------------------|
|-------------------------------------------------------------------------------------------------|


  E5
   E           S     S     S     S     S     S     E           S     S     S     S     S     S
|-------------------------------------------------------------------------------------------------|
|-------------------------------------------------------------------------------------------------|
|--9-----------x-----x-----x-----x-----x-----x-----x-----------x-----x-----x-----x-----x-----x----|
|--9-----------x-----x-----x-----x-----x-----x-----x-----------x-----x-----x-----x-----x-----x----|
|--7-----------x-----x-----x-----x-----x-----x-----x-----------x-----x-----x-----x-----x-----x----|
|-------------------------------------------------------------------------------------------------|
|
|  T  T  T  T  T  T  T  T  T  T  T  T  T  T  T  T  T  T  T  T  T  T  T  T  T  T  T  T  T  T  T  T
|-17p14-19p14-17p14-19p14-16p13-18p13-15p12-17p12-14p11-16p11-14p11-16p11-13p10-15p10-13p10-15p10-|
|-------------------------------------------------------------------------------------------------|
|-------------------------------------------------------------------------------------------------|
|-------------------------------------------------------------------------------------------------|
|-------------------------------------------------------------------------------------------------|
|-------------------------------------------------------------------------------------------------|


  E5
   E         S    S    S    S    S    S   E        S    S   S    S   S    S
|-----------------------------------------------------------------------------|
|-----------------------------------------------------------------------------|
|--9---------x----x----x----x----x----x---x--------x----x---x----x---x----x---|
|--9---------x----x----x----x----x----x---x--------x----x---x----x---x----x---|
|--7---------x----x----x----x----x----x---x--------x----x---x----x---x----x---|
|-----------------------------------------------------------------------------|
|
|  T T  T T  T T  T T  T T  T T  T T  T T T T  T T T T  T T T T  T T T T  T T
|-12p9-14p9-12p9-14p9-11p8-13p8-10p7-12p7-9p6-11p6-9p6-11p6-8p5-10p5-8p5-10p5-|
|-----------------------------------------------------------------------------|
|-----------------------------------------------------------------------------|
|-----------------------------------------------------------------------------|
|-----------------------------------------------------------------------------|
|-----------------------------------------------------------------------------|


  D5           B5          A#5         D5           B5          A5
   |-----------3-----------|            |-----------3-----------|
   Q           Q           Q            Q           Q           Q
|---------------------------------------------------------------------------|
|---------------------------------------------------------------------------|
|---------------------------------------------------------------------------|
|-12-----------9-----------8-----------12-----------9-----------8-----------|
|-12-----------9-----------8-----------12-----------9-----------8-----------|
|-10-----------7-----------6-----------10-----------7-----------6-----------|
|
|  T T T T T T   T T T T T   T T T T T  T T T T T T   T T T T T   T T T T T
|--7p4-9p4-7p4---9p4-6p3-8p==3-5p2-7p2--4p1-6p1-4p1---6p1-3p0-5p==0-3p0-5p0-|
|---------------------------------------------------------------------------|
|---------------------------------------------------------------------------|
|---------------------------------------------------------------------------|
|---------------------------------------------------------------------------|
|---------------------------------------------------------------------------|


  E5                                    E5
   E    S S S S S S  E    S S S S S S    E    S       S S S       S S  E    S S S S S S
|-------------------------------------|-------------------------------------------------|
|-------------------------------------|-------------------------------------------------|
|--9----x-x-x-x-x-x--x----x-x-x-x-x-x-|--9----x-------x-x-x-------x-x--x----x-x-x-x-x-x-|
|--9----x-x-x-x-x-x--x----x-x-x-x-x-x-|--9----x-------x-x-x-------x-x--x----x-x-x-x-x-x-|
|--7----x-x-x-x-x-x--x----x-x-x-x-x-x-|--7----x-------x-x-x-------x-x--x----x-x-x-x-x-x-|
|-------------------------------------|-------------------------------------------------|
|
|                                        |---------3---------|
|  H                 H                   Q       Q           Q         H
|-------------------------------------|-------------------------------------------------|
|-15----------------15----------------|-15------15----------15--------15----------------|
|-14b16-------------14b16-------------|-14b16---14b16-------14b16-----14b16-------------|
|-------------------------------------|-------------------------------------------------|
|-------------------------------------|-------------------------------------------------|
|-------------------------------------|-------------------------------------------------|


  E5
   E  S S S S  S S  E S S  S S  S S
|--------------------------------------|
|--------------------------------------|
|--9--x-x-x-x--x-x--x-x-x--x-x--x-x----|
|--9--x-x-x-x--x-x--x-x-x--x-x--x-x----|
|--7--x-x-x-x--x-x--x-x-x--x-x--x-x----|
|--------------------------------------|
|
|  E  Q        E    Q      E    E
|--------------------------------------|
|-12----------12----------12-----------|
|-12----------12----------12-----------|
|----14------------14----------14------|
|--------------------------------------|
|--------------------------------------|


  D5      B5   A#D5 B5 A#5  E5
    |----3-----|  |--3--|
    Q     Q    Q  Q  Q  Q    E S    S S S    S S  E    S  S  S S S  S
|-------------------------|-------------------------------------------|
|-------------------------|-------------------------------------------|
|-------------------------|--9-x----x-x-x----x-x--x----x--x--x-x-x--x-|
|--12-----9----8-12--9--8-|--9-x----x-x-x----x-x--x----x--x--x-x-x--x-|
|--12-----9----8-12--9--8-|--7-x----x-x-x----x-x--x----x--x--x-x-x--x-|
|--10-----7----6-10--7--6-|-------------------------------------------|
|
|                 |--3--|    |------3------|
|  +E   E    Q    Q  Q  Q    Q    Q        Q      S  S S  S  S S S  S
|----------------12-14-12-|-15---14-------12-----------------------15-|
|------12--------12-14-12-|-15---14-------12-----------------------15-|
|------12-----------------|----------------------15-13---15-15--------|
|-(14)------14------------|----------------------15-12---15-15--------|
|-------------------------|-------------------------------------------|
|-------------------------|-------------------------------------------|


   E S    S S S    S S  E  S S  S S S S
|-----------------------------------------|
|-----------------------------------------|
|--9-x----x-x-x----x-x--x--x-x--x-x-x-x---|
|--9-x----x-x-x----x-x--x--x-x--x-x-x-x---|
|--7-x----x-x-x----x-x--x--x-x--x-x-x-x---|
|-----------------------------------------|
|
|  |------3------|
|  Q    Q        Q      E  E    Q
|-15---14-------12------------------------|
|-15---14-------12------------------------|
|----------------------15-13---15---------|
|----------------------15-12---15---------|
|-----------------------------------------|
|-----------------------------------------|


  E5
   E S    S S S    S S  E    S  S  S S  S S
|-------------------------------------------|
|-------------------------------------------|
|--9-x----x-x-x----x-x--x----x--x--x-x--x-x-|
|--9-x----x-x-x----x-x--x----x--x--x-x--x-x-|
|--7-x----x-x-x----x-x--x----x--x--x-x--x-x-|
|-------------------------------------------|
|
|  |------3------|
|  Q    Q        Q      S  S S  S  S E.
|-15---14-------12--------------------------|
|-15---14-------12--------------------------|
|----------------------15-13---15-15--------|
|----------------------15-12---15-15--------|
|-------------------------------------------|
|-------------------------------------------|


  D5 B5    A#5D5 B5 A#5  E5
   |---3----|  |--3--|
   Q  Q     Q  Q  Q  Q   E S S S S S S E S S S S S S
|----------------------|------------------------------|
|----------------------|------------------------------|
|----------------------|-9-x-x-x-x-x-x-x-x-x-x-x-x-x--|
|-12--9-----8-12--9--8-|-9-x-x-x-x-x-x-x-x-x-x-x-x-x--|
|-12--9-----8-12--9--8-|-7-x-x-x-x-x-x-x-x-x-x-x-x-x--|
|-10--7-----6-10--7--6-|------------------------------|
|
|  |---3----|  |--3--|
|  Q  Q     Q  Q  Q  Q   E S S S S S S E S S S S S S
|----------------------|------------------------------|
|----------------------|------------------------------|
|-14-12b13----12-------|-9-x-x-x-x-x-x-x-x-x-x-x-x-x--|
|----------14----14----|-9-x-x-x-x-x-x-x-x-x-x-x-x-x--|
|-------------------14-|-7-x-x-x-x-x-x-x-x-x-x-x-x-x--|
|----------------------|------------------------------|


  E5                            E5
  E S S S S S S E S S S S S S   E S S S S S S E S S S S S S
|-----------------------------|-----------------------------|
|-----------------------------|-----------------------------|
|-9-x-x-x-x-x-x-x-x-x-x-x-x-x-|-9-x-x-x-x-x-x-x-x-x-x-x-x-x-|
|-9-x-x-x-x-x-x-x-x-x-x-x-x-x-|-9-x-x-x-x-x-x-x-x-x-x-x-x-x-|
|-7-x-x-x-x-x-x-x-x-x-x-x-x-x-|-7-x-x-x-x-x-x-x-x-x-x-x-x-x-|
|-----------------------------|-----------------------------|
|
| E S S S S S S E S S S S S S   E S S S S S S E S S S S S S
|-----------------------------|-----------------------------|
|-----------------------------|-----------------------------|
|-9-x-x-x-x-x-x-x-x-x-x-x-x-x-|-9-x-x-x-x-x-x-x-x-x-x-x-x-x-|
|-9-x-x-x-x-x-x-x-x-x-x-x-x-x-|-9-x-x-x-x-x-x-x-x-x-x-x-x-x-|
|-7-x-x-x-x-x-x-x-x-x-x-x-x-x-|-7-x-x-x-x-x-x-x-x-x-x-x-x-x-|
|-----------------------------|-----------------------------|


    D5 B5A#D5 B5A#5 E5
     |-3-|  |-3-|
     Q Q Q  Q Q Q   E S S S S S S E S S S S S S
||----------------|-----------------------------|
||o---------------|-----------------------------|
||----------------|-9-x-x-x-x-x-x-x-x-x-x-x-x-x-|
||--12-9-8-12-9-8-|-9-x-x-x-x-x-x-x-x-x-x-x-x-x-|
||o-12-9-8-12-9-8-|-7-x-x-x-x-x-x-x-x-x-x-x-x-x-|
||--10-7-6-10-7-6-|-----------------------------|
|
|    |-3-|  |-3-|
|    Q Q Q  Q Q Q   E S S S S S S E S S S S S S
||----------------|-----------------------------|
||o---------------|-----------------------------|
||----------------|-9-x-x-x-x-x-x-x-x-x-x-x-x-x-|
||--12-9-8-12-9-8-|-9-x-x-x-x-x-x-x-x-x-x-x-x-x-|
||o-12-9-8-12-9-8-|-7-x-x-x-x-x-x-x-x-x-x-x-x-x-|
||--10-7-6-10-7-6-|-----------------------------|


  E5                            E5
  E S S S S S S E S S S S S S   E S S S S S S E S S S S S S   3x
|-----------------------------|-------------------------------||
|-----------------------------|------------------------------o||
|-9-x-x-x-x-x-x-x-x-x-x-x-x-x-|-9-x-x-x-x-x-x-x-x-x-x-x-x-x---||
|-9-x-x-x-x-x-x-x-x-x-x-x-x-x-|-9-x-x-x-x-x-x-x-x-x-x-x-x-x---||
|-7-x-x-x-x-x-x-x-x-x-x-x-x-x-|-7-x-x-x-x-x-x-x-x-x-x-x-x-x--o||
|-----------------------------|-------------------------------||
|
| E S S S S S S E S S S S S S   E S S S S S S E S S S S S S   3x
|-----------------------------|-------------------------------||
|-----------------------------|------------------------------o||
|-9-x-x-x-x-x-x-x-x-x-x-x-x-x-|-9-x-x-x-x-x-x-x-x-x-x-x-x-x---||
|-9-x-x-x-x-x-x-x-x-x-x-x-x-x-|-9-x-x-x-x-x-x-x-x-x-x-x-x-x---||
|-7-x-x-x-x-x-x-x-x-x-x-x-x-x-|-7-x-x-x-x-x-x-x-x-x-x-x-x-x--o||
|-----------------------------|-------------------------------||


    D5 B5A#D5 B5A#5 E5                            E5
     |-3-|  |-3-|
     Q Q Q  Q Q Q   E S S S S S S E S S S S S S   E S S S S S S E S S S S S S
||----------------|-----------------------------|------------------------------|
||o---------------|-----------------------------|------------------------------|
||----------------|-9-x-x-x-x-x-x-x-x-x-x-x-x-x-|-9-x-x-x-x-x-x-x-x-x-x-x-x-x--|
||--12-9-8-12-9-8-|-9-x-x-x-x-x-x-x-x-x-x-x-x-x-|-9-x-x-x-x-x-x-x-x-x-x-x-x-x--|
||o-12-9-8-12-9-8-|-7-x-x-x-x-x-x-x-x-x-x-x-x-x-|-7-x-x-x-x-x-x-x-x-x-x-x-x-x--|
||--10-7-6-10-7-6-|-----------------------------|------------------------------|
|
|    |-3-|  |-3-|
|    Q Q Q  Q Q Q   Q     S S S S Q     S S S S   Q     S S S S Q     S S S S
||----------------|-----------------------------|------------------------------|
||o---------------|-----------------------------|------------------------------|
||----------------|-9---------------------------|------------------------------|
||--12-9-8-12-9-8-|-9---------------------------|------------------------------|
||o-12-9-8-12-9-8-|-7-----7-5-----------7-5-----|-------7-5-----------7-5------|
||--10-7-6-10-7-6-|-----------7-5-----------7-5-|-----------7-5-----------7-5--|


  E5                              D5 B5A#D5 B5A#5 E5
                                   |-3-|  |-3-|
  E S S S S S S E S S S S S S      Q Q Q  Q Q Q   E S S S S S S E S S S S S S
|------------------------------||---------------|-----------------------------|
|-----------------------------o||---------------|-----------------------------|
|-9-x-x-x-x-x-x-x-x-x-x-x-x-x--||---------------|-9-x-x-x-x-x-x-x-x-x-x-x-x-x-|
|-9-x-x-x-x-x-x-x-x-x-x-x-x-x--||-12-9-8-12-9-8-|-9-x-x-x-x-x-x-x-x-x-x-x-x-x-|
|-7-x-x-x-x-x-x-x-x-x-x-x-x-x-o||-12-9-8-12-9-8-|-7-x-x-x-x-x-x-x-x-x-x-x-x-x-|
|------------------------------||-10-7-6-10-7-6-|-----------------------------|
|
|                                  |-3-|  |-3-|
| Q     S S S S Q     S S S S      Q Q Q  Q Q Q   Q     S S S S Q     E   S S
|------------------------------||---------------|-----------------------------|
|-----------------------------o||---------------|-----------------------------|
|------------------------------||---------------|-----------------------------|
|------------------------------||-12-9-8-12-9-8-|-------7-5-----------7---8-7-|
|-------7-5-----------7-5-----o||-12-9-8-12-9-8-|-----------7-5---------------|
|-----------7-5-----------7-5--||-10-7-6-10-7-6-|-----------------------------|


  E5                            E5
  E S S S S S S E S S S S S S   E S S S S S S E S S S S S S
|-----------------------------|-----------------------------|
|-----------------------------|-----------------------------|
|-9-x-x-x-x-x-x-x-x-x-x-x-x-x-|-9-x-x-x-x-x-x-x-x-x-x-x-x-x-|
|-9-x-x-x-x-x-x-x-x-x-x-x-x-x-|-9-x-x-x-x-x-x-x-x-x-x-x-x-x-|
|-7-x-x-x-x-x-x-x-x-x-x-x-x-x-|-7-x-x-x-x-x-x-x-x-x-x-x-x-x-|
|-----------------------------|-----------------------------|
|
| Q     S S S S Q     E   S S   Q     S S S S Q     E   S S
|-----------------------------|-----------------------------|
|-----------------------------|-----------------------------|
|-----------------------------|-----------------------------|
|-------7-5-----------7---8-7-|-------7-5-----------7---8-7-|
|-----------7-5---------------|-----------7-5---------------|
|-----------------------------|-----------------------------|


  D5 B5A#D5 B5A5  E5                            E5
   |-3-|  |-3-|
   Q Q Q  Q Q Q   E S S S S S S E S S S S S S   E S S S S S S E S S S S S S
|---------------|-----------------------------|-----------------------------|
|---------------|-----------------------------|-----------------------------|
|---------------|-9-x-x-x-x-x-x-x-x-x-x-x-x-x-|-9-x-x-x-x-x-x-x-x-x-x-x-x-x-|
|-12-9-8-12-9-8-|-9-x-x-x-x-x-x-x-x-x-x-x-x-x-|-9-x-x-x-x-x-x-x-x-x-x-x-x-x-|
|-12-9-8-12-9-8-|-7-x-x-x-x-x-x-x-x-x-x-x-x-x-|-7-x-x-x-x-x-x-x-x-x-x-x-x-x-|
|-10-7-6-10-7-6-|-----------------------------|-----------------------------|
|
|  |-3-|  |-3-|
|  Q Q Q  Q Q Q   Q     S S S S Q     E   S S   Q     S S S S Q     E   S S
|---------------|-----------------------------|-----------------------------|
|---------------|-----------------------------|-----------------------------|
|---------------|-----------------------------|-----------------------------|
|-12-9-8-12-9-8-|-------7-5-----------7---8-7-|-------7-5-----------7---8-7-|
|-12-9-8-12-9-8-|-----------7-5---------------|-----------7-5---------------|
|-10-7-6-10-7-6-|-----------------------------|-----------------------------|


  E5                            D5 B5A#D5 B5A#5
                                 |-3-|  |-3-|
  E S S S S S S E S S S S S S    Q Q Q  Q Q Q
|-----------------------------|---------------|
|-----------------------------|---------------|
|-9-x-x-x-x-x-x-x-x-x-x-x-x-x-|---------------|
|-9-x-x-x-x-x-x-x-x-x-x-x-x-x-|-12-9-8-12-9-8-|
|-7-x-x-x-x-x-x-x-x-x-x-x-x-x-|-12-9-8-12-9-8-|
|-----------------------------|-10-7-6-10-7-6-|
|
|                                |-3-|  |-3-|
| Q     S S S S Q     E   S S    Q Q Q  Q Q Q
|-----------------------------|---------------|
|-----------------------------|---------------|
|-----------------------------|---------------|
|-------7-5-----------7---8-7-|-12-9-8-12-9-8-|
|-----------7-5---------------|-12-9-8-12-9-8-|
|-----------------------------|-10-7-6-10-7-6-|


  A5         D5 B5A#D5 B5A#5 E5
              |-3-|  |-3-|
  W           Q Q Q  Q Q Q   Q  H.
|----------|---------------|----------*|
|----------|---------------|----------*|
|----------|---------------|-9--------*|
|-7--------|-12-9-8-12-9-8-|-9--------*|
|-7--------|-12-9-8-12-9-8-|-7--------*|
|-5--------|-10-7-6-10-7-6-|----------*|
|
|             |-3-|  |-3-|
| W           Q Q Q  Q Q Q   Q  H.
|----------|---------------|----------*|
|----------|---------------|----------*|
|----------|---------------|-9--------*|
|-7--------|-12-9-8-12-9-8-|-9--------*|
|-7--------|-12-9-8-12-9-8-|-7--------*|
|-5--------|-10-7-6-10-7-6-|----------*|



Duration Legend
---------------
W - whole; H - half; Q - quarter; E - 8th; S - 16th; T - 32nd; X - 64th; a - acciaccatura
+ - note tied to previous; . - note dotted; .. - note double dotted
Uncapitalized letters represent notes that are staccato (1/2 duration)
Irregular groupings are notated above the duration line
Duration letters will always appear directly above the note/fret number it represents the
duration for.  Duration letters with no fret number below them represent rests.  Multi-
bar rests are notated in the form Wxn, where n is the number of bars to rest for.  Low
melody durations appear below the staff

Tablature Legend
----------------
 h   - hammer-on
 p   - pull-off
 b   - bend
 pb  - pre-bend
 r   - bend release (if no number after the r, then release immediately)
 /\  - slide into or out of (from/to "nowhere")
 s   - legato slide
 S   - shift slide
 - natural harmonic
[n]  - artificial harmonic
n(n) - tapped harmonic
 ~   - vibrato
 tr  - trill
 T   - tap
 TP  - trem. picking
 PM  - palm muting
\n/  - tremolo bar dip; n = amount to dip
 \n  - tremolo bar down
 n/  - tremolo bar up
/n\  - tremolo bar inverted dip
 =   - hold bend; also acts as connecting device for hammers/pulls
 <> - volume swell (louder/softer)
 x   - on rhythm slash represents muted slash
 o   - on rhythm slash represents single note slash

Misc Legend
-----------
 |  - bar
||  - double bar
||o - repeat start
o|| - repeat end
*|  - double bar (ending)
 :  - bar (freetime)
 $  - Segno
 &  - Coda
Tempo markers -  = BPM(8/16=s8/s16), where s8 = swing 8ths, s16 = swing 16ths

Tap to rate this tab
 
# A B C D E F G H I J K L M N O P Q R S T U V W X Y Z