Song name
# A B C D E F G H I J K L M N O P Q R S T U V W X Y Z

Megadeth - Breadline tab

#----------------------------------PLEASE NOTE---------------------------------#
#This file is the author's own work and represents their interpretation of the #
#song. You may only use this file for private study, scholarship, or research. #
#------------------------------------------------------------------------------#

BREADLINE
As recorded by Megadeth
(From the 1999 Album RISK)

Transcribed by Master B
	

Music by Dave Mustaine,Marty Friedman,Bud Prager

Gtr I (E A D G B E) - 'Slight Distortion'
Gtr II (E A D G B E) - 'Distortion'
Gtr III (E A D G B E) - 'Distortion'
Gtr IV (E A D G B E) - 'Lead Guitar'

   Verse
   4/4
    Gtr I
    E E E E E E E E   +E  E E E +E  E E E
||------------------|---------------------|
||o-----------------|---------------------|
||------------------|---------------------|
||------7-----6-----|-----6---------4-----|
||o---7-----7-----6-|-(6)-----6-(6)---6---|
||--0-----0-----0---|-------0-----------0-|


  E E E E E E E E   +E  E E E E E E E
|-----------------|-------------------|
|-----------------|-------------------|
|-----------------|-------0---2-0-----|
|-----5-----4-----|-----2---2-----2---|
|---5-----5-----4-|-(4)-------------4-|
|-0-----0-----0---|-------------------|


  E E E E E E E E   +E  E E E +E  E E E   E E E E E E E E   +E  E E E E E E E
|-----------------|---------------------|-----------------|--------------------|
|-----------------|---------------------|-----------------|--------------------|
|-----------------|---------------------|-----------------|-------0---2-0------|
|-----7-----6-----|-----6---------4-----|-----5-----4-----|-----2---2-----2----|
|---7-----7-----6-|-(6)-----6-(6)---6---|---5-----5-----4-|-(4)-------------4--|
|-0-----0-----0---|-------0-----------0-|-0-----0-----0---|--------------------|


  E E E E E E E E   +E  E E E +E  E E E   E E E E E E E E   +E  E E E E E E E
|-----------------|---------------------|-----------------|--------------------|
|-----------------|---------------------|-----------------|--------------------|
|-----------------|---------------------|-----------------|-------0---2-0------|
|-----7-----6-----|-----6---------4-----|-----5-----4-----|-----2---2-----2----|
|---7-----7-----6-|-(6)-----6-(6)---6---|---5-----5-----4-|-(4)-------------4--|
|-0-----0-----0---|-------0-----------0-|-0-----0-----0---|--------------------|


  E E E E E E E E   +E  E E E +E  E E E
|-----------------|---------------------|
|-----------------|---------------------|
|-----------------|---------------------|
|-----7-----6-----|-----6---------4-----|
|---7-----7-----6-|-(6)-----6-(6)---6---|
|-0-----0-----0---|-------0-----------0-|


  E E E E E E E E   +E  E E E E E E E
|-----------------|--------------------||
|-----------------|--------------------||
|-----------------|-------0---2-0------||
|-----5-----4-----|-----2---2-----2----||
|---5-----5-----4-|-(4)-------------4--||
|-0-----0-----0---|--------------------||


 Pre-Chorus
  Gtrs I, II
                            ~                                      ~
  E E E E E E E E   +E  E E E +E  E Q    E E E E E E E E   +E  E E E +E  E Q
|-----------------|--------------------|-----------------|---------------------|
|-----------------|--------------------|-----------------|---------------------|
|-----------------|-------2---------0--|-----------------|-------2---------0---|
|-----2-------0---|-----2---------2----|-----2-------0---|-----2---------2-----|
|---2-------2---0-|-(0)-----3-(3)------|---2-------2---0-|-(0)-----3-(3)-------|
|-0-----0-3-------|--------------------|-0-----0-3-------|---------------------|


                            ~
  E E E E E E E E   +E  E E E +E  E Q    E E E E E E E E   +W
|-----------------|--------------------|-----------------|--------|
|-----------------|--------------------|-----------------|--------|
|-----------------|-------2---------0--|---------------2-|-(2)----|
|-----2-------0---|-----2---------2----|-----2-------0-2-|-(2)----|
|---2-------2---0-|-(0)-----3-(3)------|---2---2---2---0-|-(0)----|
|-0-----0-3-------|--------------------|-0-----0-3-------|--------|


                   Chorus
                 $
               E5                 B/Eb                A5            E/AbA5
  +H.      +E  E    Q  Q  +E  E E E   +Q   Q  +E  E E E   Q  Q  +E  E E E
|----------------||-----------------|-------------------|------------------|
|----------------||-----------------|-------------------|------------------|
|-(2)------(2)---||-----------------|-------------------|------------------|
|-(2)------(2)-9-||-9--9--(9)-9---9-|-(9)--9--(9)-9-----|------------------|
|-(0)------(0)-7-||-7--7--(7)-7---6-|-(6)--6--(6)-6---7-|-7--7--(7)-7---7--|
|----------------||-----------------|-----------------5-|-5--5--(5)-4---5--|


                   1.
    E5/BA5  E/F#C#m/F#5         A5          B5        E5               G5
                                                                 PM--|
  E E E E E E E E   Q  Q  E E E E   +E  E E E +E  E E E   Q  Q   E E E E
|-----------------|---------------|---------------------|-------------------|
|-----------------|---------------|---------------------|-------------------|
|-----------------|---------------|---------------------|-------------------|
|-----------------|---------------|---------------------|-------------------|
|---7---7---7-4-4-|-4--4----4---7-|-(7)-7---9-(9)-9---2-|-2--2---2-2-2-5----|
|---7---5---4-2-0-|-2--2----2---5-|-(5)-5---7-(7)-7---0-|-0--0---0-0-0-3----|
|
|                                                         Gtr III
| W                 W                W                    H      E E E E
|-----------------|---------------|---------------------|-------------------|
|-----------------|---------------|---------------------|------------5-6b8--|
|-----------------|---------------|---------------------|----------4--------|
|-----------------|---------------|---------------------|-------/6----------|
|-----------------|---------------|---------------------|-------------------|
|-----------------|---------------|---------------------|-------------------|


            A5
  +E  Q     E   +Q     Q     E E E E E E E E
|--------------------------|-----------------|
|--------------------------|-----------------|
|--------------------------|-----------------|
|--------------------------|-----7-----6-----|
|-(5)-5-----7---(7)----7\--|---7-----7-----6-|
|-(3)-3-----5---(5)----5\--|-0-----0-----0---|
|
|  E  E   E E   +H           W
|--------------------------|-----------------|
|-----5b7---3b5-(3)b5------|-----------------|
|--------------------------|-----------------|
|--------------------------|-----------------|
|--------------------------|-----------------|
|--------------------------|-----------------|


  +E  E E E +E  E E E   E E E E E E E E   +E  E E E E E E E
|---------------------|-----------------|---------------------||
|---------------------|-----------------|--------------------o||
|---------------------|-----------------|-------0---2-0-------||
|-----6---------4-----|-----5-----4-----|-----2---2-----2-----||
|-(6)-----6-(6)---6---|---5-----5-----4-|-(4)-------------4--o||
|-------0-----------0-|-0-----0-----0---|---------------------||
|
|  W                    W                  W
|---------------------|-----------------|---------------------||
|---------------------|-----------------|--------------------o||
|---------------------|-----------------|---------------------||
|---------------------|-----------------|---------------------||
|---------------------|-----------------|--------------------o||
|---------------------|-----------------|---------------------||


  2.
  F#5         A5          B5        E5
  Q  Q  E E E E   +E  E E E +E  E E E
|---------------|---------------------|
|---------------|---------------------|
|---------------|---------------------|
|---------------|---------------------|
|-4--4----4---7-|-(7)-7---9-(9)-9---2-|
|-2--2----2---5-|-(5)-5---7-(7)-7---0-|
|
| Gtr III
| W                W
|---------------|---------------------|
|---------------|---------------------|
|---------------|---------------------|
|---------------|---------------------|
|---------------|---------------------|
|---------------|---------------------|


                  G5                  A5
          PM---|
  Q  Q    E  E  E  E      +E   Q       E     +Q      Q
|-----------------------|---------------------------------|
|-----------------------|---------------------------------|
|-----------------------|---------------------------------|
|-----------------------|---------------------------------|
|-2--2----2--2--2--5----|-(5)--5-------7-----(7)-----7\---|
|-0--0----0--0--0--3----|-(3)--3-------5-----(5)-----5\---|
|
| H       E  E  E  E       E   E    E  E     +H
|-----------------------|-----14------12----(12)----------|
|--------------17-19b21-|-----17b19---15b17-(15)b17-------|
|-----------16----------|---------------------------------|
|-------/18-------------|---------------------------------|
|-----------------------|---------------------------------|
|-----------------------|---------------------------------|


  E5            B/Eb                A5            E/AbA5    E5/BA5  E/F#C#m/E
  Q  Q  +E  E E E   +Q   Q  +E  E E E   Q  Q  +E  E E E   E E E E E E E E
|-----------------|-------------------|-----------------|------------------|
|-----------------|-------------------|-----------------|------------------|
|-----------------|-------------------|-----------------|------------------|
|-9--9--(9)-9---9-|-(9)--9--(9)-9-----|-----------------|------------------|
|-7--7--(7)-7---6-|-(6)--6--(6)-6---7-|-7--7--(7)-7---7-|---7---7---7-4-4--|
|-----------------|-----------------5-|-5--5--(5)-4---5-|---7---5---4-2-0--|


                               To Coda
  F#5         A5          B5        E5
  Q  Q  E E E E   +E  E E E +E  E E E
|---------------|---------------------|
|---------------|---------------------|
|---------------|---------------------|
|---------------|---------------------|
|-4--4----4---7-|-(7)-7---9-(9)-9---2-|
|-2--2----2---5-|-(5)-5---7-(7)-7---0-|
|
| Gtr III
| W                W
|---------------|---------------------|
|---------------|---------------------|
|---------------|---------------------|
|---------------|---------------------|
|---------------|---------------------|
|---------------|---------------------|


               G5              A5          G#5
         PM--|
  Q  Q   E E E E     +E  Q     E   +Q.     E
|------------------|--------------------------|
|------------------|--------------------------|
|------------------|--------------------------|
|------------------|--------------------------|
|-2--2---2-2-2-5---|-(5)-5-----7---(7)-----6--|
|-0--0---0-0-0-3---|-(3)-3-----5---(5)-----4--|
|
| H      E E E E      E  E   E E   +H
|------------------|--------------------------|
|------------5-6b8-|-----5b7---3b5-(3)b5------|
|----------4-------|--------------------------|
|-------/6---------|--------------------------|
|------------------|--------------------------|
|------------------|--------------------------|


 Guitar Solo
  A5                                G#A5
  Gtrs I, II
  H       H         H          Q    E E
|-----------------|---------------------|
|-----------------|---------------------|
|-----------------|---------------------|
|-----------------|---------------------|
|-7---------------|-----------------6-7-|
|-5---------------|-----------------4-5-|
|
| Gtr III
| E E E E E E Q     E E E   E  E  E Q
|-----------------|---------------------|
|-----------------|---------------------|
|-----------------|---------------------|
|-----6-----4-----|-----6---------4-----|
|---4-----4-------|---4--------4--------|
|-5-----5---------|-5-------5-----------|
|
| Gtr IV
|                                   ~~~~~
| E E E E E E E E   E E E a E +Q    Q
|-----------------|---------------------|
|-----------------|---------------------|
|-----------------|---------------------|
|-----6-----4-4-4-|---4---4h6-(6)-------|
|---4-------------|---------------------|
|-5-----5---------|-----------------xs==|


                                   G#5 E5
  +H       H          H          E Q   E
|------------------|----------------------|
|------------------|----------------------|
|------------------|----------------------|
|------------------|----------------------|
|-(7)--------------|---------------6---2--|
|-(5)--------------|---------------4---0--|
|
|  E E E E E E Q      E    E E E E E Q
|------------------|----------------------|
|------------------|----------------------|
|------------------|----------------------|
|------6-----4-----|---------6-----4------|
|----4-----4-------|-------4-----4--------|
|--5-----5---------|--5--------5----------|
|
|~~~~~
|  Q   Q   E E E E   +E  a Q   Q   Q   E
|------------------|----------------------|
|------------------|----------------------|
|------------------|----------------------|
|------------4-4-4-|-(4)-4h6--------------|
|------------------|-----------7---6---7--|
|--xs==x-----------|----------------------|


                                 G#A5
  +W               +H.           E E
|----------------|-------------------|
|----------------|-------------------|
|----------------|-------------------|
|----------------|-------------------|
|-(2)------------|-(2)-----------6-7-|
|-(0)------------|-(0)-----------4-5-|
|
|  W                W
|----------------|-------------------|
|----------------|-------------------|
|----------------|-------------------|
|----------------|-------------------|
|----------------|-------------------|
|----------------|-------------------|
|
| +H.      +E  E    E  E E E E E E E
|--------------0-|--0--0-0-0-0-0-0-0-|
|--------------5-|--5--4-4-2-2-0-0-0-|
|----------------|-----------------2-|
|----------------|-------------------|
|-(7)------(7)---|-------------------|
|----------------|-------------------|


                                      G#A5
  H        H           H         Q    E E
|-------------------|----------------------|
|-------------------|----------------------|
|-------------------|----------------------|
|-------------------|----------------------|
|-7-----------------|-----------------6-7--|
|-5-----------------|-----------------4-5--|
|
| E E E E  E  E Q      E  E E E  E  E Q
|-------------------|----------------------|
|-------------------|----------------------|
|-------------------|----------------------|
|-----6-------4-----|-------6-------4------|
|---4------4--------|-----4------4---------|
|-5-----5-----------|--5------5------------|
|
|                                   ~~
| H       +E  E E E   +E  E E E +E  Q.
|-0-------(0)-------|----------------------|
|-0-------(0)-------|----------------------|
|-2-------(2)-4-4-4-|-(4)------------------|
|-------------------|-----7-6-7-(7)--------|
|-------------------|----------------------|
|-------------------|---------------xs=====|


                                   G#5 F#5
  +H       H          H          E Q   E
|------------------|---------------------|
|------------------|---------------------|
|------------------|---------------------|
|------------------|---------------------|
|-(7)--------------|---------------6---4-|
|-(5)--------------|---------------4---2-|
|
|  E E E E E E Q      E    E E E E E Q
|------------------|---------------------|
|------------------|---------------------|
|------------------|---------------------|
|------6-----4-----|---------6-----4-----|
|----4-----4-------|-------4-----4-------|
|--5-----5---------|--5--------5---------|
|
|  ~~~
|  H       E E E E   +E  a Q   Q   Q   E
|------------------|---------------------|
|------------------|---------------------|
|------------4-4-4-|-(4)-4h6-------------|
|------------------|-----------7---6---4-|
|------------------|---------------------|
|--xs======x-------|---------------------|


                           A5
                    PM                       PM
  +Q   Q    +E   E  E  E    Q   Q    +E   E  E  E
|------------------------|------------------------|
|------------------------|------------------------|
|------------------------|------------------------|
|------------------------|------------------------|
|-(4)--4----(4)--4--4--4-|--7---7----(7)--7--7--7-|
|-(2)--2----(2)--2--2--2-|--5---5----(5)--5--5--5-|
|
|  W                        W
|------------------------|------------------------|
|------------------------|------------------------|
|------------------------|------------------------|
|------------------------|------------------------|
|------------------------|------------------------|
|------------------------|------------------------|
|
| +Q.     Q      E  E  E    Q   E  Q      E  E  E
|------------------------|--------17-----16-14----|
|------------------------|---------------------17-|
|--------14-----13-11----|-11--11-----------------|
|-(4)-----------------14-|------------------------|
|------------------------|------------------------|
|------------------------|------------------------|


                                                                  D.S. al Coda
  B5      E5                                            B5
        PM   PM             PM
   E    E E  E      E     E E  E        E     E E  E      Q           Q
|-----------------------------------|-----------------------------------------|
|-----------------------------------|-----------------------------------------|
|-----------------------------------|-----------------------------------------|
|---------9---------9-----9----9----|---------9----9--------------------------|
|--9------7---------7-----7----7----|---------7----7------9-----------9-------|
|--7----7----7--------------7-------|---------------------7-----------7-------|
|
| Gtr IV
|                                                         |------3-------|
|  Q.        E     +Q.         E       +Q.         E     +Q      Q       Q
|-14--------17----(17)--------------|-----------------------------------------|
|-17b19-----20b22-(20)b22-----22b24-|-(22)b24-----22b24-(22)b24-22b24---22b24-|
|-----------------------------------|-----------------------------------------|
|-----------------------------------|-----------------------------------------|
|-----------------------------------|-----------------------------------------|
|-----------------------------------|-----------------------------------------|


  &
  E5              G5                  A5               G#5
          PM---|
  Q  Q    E  E  E  E      +E   Q       E    +Q.          E
|-----------------------|---------------------------------------|
|-----------------------|---------------------------------------|
|-----------------------|---------------------------------------|
|-----------------------|---------------------------------------|
|-2--2----2--2--2--5----|-(5)--5-------7----(7)----------6------|
|-0--0----0--0--0--3----|-(3)--3-------5----(5)----------4------|
|
| Gtr III
| H       E  E  E  E       E   E    E  E     E   Q      +E
|-----------------------|-----14----------------12-----(12)-----|
|--------------17-19b21-|-----17b19---15b17-----15b17--(15)b17--|
|-----------16----------|---------------------------------------|
|-------/18-------------|---------------------------------------|
|-----------------------|---------------------------------------|
|-----------------------|---------------------------------------|


  E5                B/Eb                    A5
   Q     Q  +E  E E E   +Q    Q     +E  E E  E
|---------------------|----------------------------|
|---------------------|----------------------------|
|---------------------|----------------------------|
|--9-----9--(9)-9---9-|-(9)---9-----(9)-9----------|
|--7-----7--(7)-7---6-|-(6)---6-----(6)-6----7-----|
|---------------------|----------------------5-----|
|
|  W                     Q    E  E  +Q.      E
|-12------------------|-11---14-14-(14)------------|
|-15b17---------------|---------------------12b14--|
|---------------------|----------------------------|
|---------------------|----------------------------|
|---------------------|----------------------------|
|---------------------|----------------------------|


                         E/Ab    A5       E5/BA5  E/AF#C#m/E
    Q           Q  +E     E    E   E    E E E E E  E E  E
|-------------------------------------|-------------------|
|-------------------------------------|-------------------|
|-------------------------------------|-------------------|
|-------------------------------------|-------------------|
|---7-----------7--(7)----7--------7--|---7---7----7-4--4-|
|---5-----------5--(5)----4--------5--|---7---5----4-2--0-|
|
|                                       ~
|  +E      Q.       E     Q       +E    H       E  E E  E
|-------------------------------------|-------------------|
|-(12)b14-12b14----12b14-12b14r==(12)-|--------------9-12-|
|-------------------------------------|-9-------9-11------|
|-------------------------------------|-------------------|
|-------------------------------------|-------------------|
|-------------------------------------|-------------------|


  F#5                 A5                  B5              E5
   Q     Q  E E  E     E       +E     E E  E    +E    E E  E
|---------------------------|-----------------------------------|
|---------------------------|-----------------------------------|
|---------------------------|-----------------------------------|
|---------------------------|-----------------------------------|
|--4-----4----4--------7----|--(7)----7----9----(9)---9----2----|
|--2-----2----2--------5----|--(5)----5----7----(7)---7----0----|
|
|  ~~~~~
|  H.            E     E       +Q.         E     Q.        E
|----------------------9----|--(9)--------11----11--------12----|
|-12b14---------12b14-12b14-|-(12)b14-----14b16-14b16-----15b17-|
|---------------------------|-----------------------------------|
|---------------------------|-----------------------------------|
|---------------------------|-----------------------------------|
|---------------------------|-----------------------------------|


                          G5                A5
              PM--|
    Q      Q  E E   E      E   +E   Q        E  +Q        Q
|----------------------------|--------------------------------------|
|----------------------------|--------------------------------------|
|----------------------------|--------------------------------------|
|----------------------------|--------------------------------------|
|---2------2--2-2---2------5-|-(5)--5--------7--(7)-------7\--------|
|---0------0--0-0---0------3-|-(3)--3--------5--(5)-------5\--------|
|
|                                                |-----3------|
|  +H.             +E      E    E   Q        E  +Q   Q        Q
|-(12)------------(12)-------|----------------------17b19----17b19--|
|-(15)b17---------(15)b17----|--------------------------------------|
|-------------------------12-|-----12b12.5--------------------------|
|-------------------------12-|-----12b12.5--------------------------|
|----------------------------|-14-----------14-(14)-----------------|
|----------------------------|--------------------------------------|


                                                    ~
   E    E E E   E     E       E       E   +E    E E E  +E     E       Q
|---------------------------------------|-------------------------------------|
|---------------------------------------|-------------------------------------|
|---------------------------------------|---------2-------------------0-------|
|---------2-------------------0---------|-------2-------------2---------------|
|-------2-------------2---------------0-|-(0)-------3--(3)--------------------|
|--0--------0---3-----------------------|-------------------------------------|
|
|               |-------3--------|                      |-------3--------|
|  H           +Q        Q       Q         H           +Q        Q       Q
|-17b19-------(17)b19---17b19---17b19---|-17b19-------(17)b19---17b19---17b19-|
|---------------------------------------|-------------------------------------|
|---------------------------------------|-------------------------------------|
|---------------------------------------|-------------------------------------|
|---------------------------------------|-------------------------------------|
|---------------------------------------|-------------------------------------|


                                                              ~
   E    E       E       E  E    E       E       E   +E    E E E  +E      E Q
|-------------------------------------------------|---------------------------------|
|-------------------------------------------------|---------------------------------|
|-------------------------------------------------|---------2--------------0--------|
|---------------2-----------------------0---------|-------2--------------2----------|
|-------2-----------------------2---------------0-|-(0)-------3--(3)----------------|
|--0--------------------0--3----------------------|---------------------------------|
|
|  |-------3-------|       |-------3-------|
|  Q       Q       Q       Q       Q       Q         H            Q.           E
|-17b19---17b19---17b19---17b19---17b19---17b19---|-17b19r======(17)pb18r====(17)---|
|-------------------------------------------------|---------------------------------|
|-------------------------------------------------|---------------------------------|
|-------------------------------------------------|---------------------------------|
|-------------------------------------------------|---------------------------------|
|-------------------------------------------------|---------------------------------|


                                                ~
   E E    E    E  E E    E    E   +E  E    E    E +E  E    Q
|-------------------------------|-------------------------------|
|-------------------------------|-------------------------------|
|-------------------------------|----------2---------------0----|
|---------2--------------0------|-----2---------------2---------|
|----2--------------2---------0-|-(0)-----------3-(3)-----------|
|--0-----------0--3-------------|-------------------------------|
|
|                                  ~~~~~~~~
|  |----3----|    |----3----|      |----3-----|    |----3-----|
|  Q    Q    Q    Q    Q    Q      Q     Q    Q    Q     Q    Q
|-15---12-----------------------|-------------------------------|
|-----------15---12-------------|-------------------------------|
|---------------------15---14---|-12--------------------12------|
|-------------------------------|-------14---12---14---------14-|
|-------------------------------|-------------------------------|
|-------------------------------|-------------------------------|


                                                    ~
   E    E E E   E     E       E       E   +E    E E E +E  E Q
|---------------------------------------|----------------------|
|---------------------------------------|----------------------|
|---------------------------------------|---------2---------0--|
|---------2-------------------0---------|-------2---------2----|
|-------2-------------2---------------0-|-(0)-------3-(3)------|
|--0--------0---3-----------------------|----------------------|
|
|                                          ~~~~~
|               |-------3--------|
|  H           +Q        Q       Q         W
|---------------------------------------|----------------------|
|-12----------(12)------12------12------|-12-------------------|
|-14b16-------(14)b16---14b16---14b16---|-14b16----------------|
|---------------------------------------|----------------------|
|---------------------------------------|----------------------|
|---------------------------------------|----------------------|


   E    E     E  E      E      E  E    E
|-------------------------------------------|
|-------------------------------------------|
|-------------------------------------------|
|-------------2-------------------0---------|
|-------2----------------------2-------0----|
|--0-------------0------3-------------------|
|
|  S  E    S  E  S  S  +S   S  E  S  E    S
|-12-10---------12-10-(10)-------12-10------|
|---------12-10------------12-10---------12-|
|-------------------------------------------|
|-------------------------------------------|
|-------------------------------------------|
|-------------------------------------------|


                  ~~
  +E   E    E     E +E     E     Q           E      E  E   E     E  E   E    E
|----------------------------------------|---------------------------------------|
|----------------------------------------|---------------------------------------|
|-----------2--------------------0-------|---------------------------------------|
|------2-------------------2-------------|-------------2----------------0--------|
|-(0)-------------3-(3)------------------|----------2---------------2--------0---|
|----------------------------------------|---0-------------0-----3---------------|
|
|  E   S  E    S  E  S   E    S  E  S  S    +S   S  E  S E    S  E  S E    S E
|-----12-10---------12--10---------12-10-|-(10)----------------------------------|
|-10----------12-10----------12-10-------|------12-10--------12-10---------------|
|----------------------------------------|------------12-9---------12-9----------|
|----------------------------------------|--------------------------------12-9---|
|----------------------------------------|---------------------------------------|
|----------------------------------------|---------------------------------------|


                 ~
  +E     E     E E   +E    E  Q
|---------------------------------|
|---------------------------------|
|--------------2--------------0---|
|--------2-----------------2------|
|-(0)------------3---(3)----------|
|---------------------------------|
|
|  S   E    S  E S E     S E +Q
|---------------------------------|
|---------------------------------|
|---------------------------------|
|---------------------------------|
|-12--10--------------------------|
|----------12-10S7-5-----3-0-(0)--|


                                                ~
   E E    E    E  E E    E    E   +E  E    E    E +E  E    Q
|-------------------------------|---------------------------------|
|-------------------------------|---------------------------------|
|-------------------------------|----------2---------------0------|
|---------2--------------0------|-----2---------------2-----------|
|----2--------------2---------0-|-(0)-----------3-(3)-------------|
|--0-----------0--3-------------|---------------------------------|
|
|  TP   TP   TP   TP   TP   TP     TP    TP   TP   TP    TP   TP
|  |----3----|    |----3----|      |----3-----|    |----3-----|
|  Q    Q    Q    Q    Q    Q      Q     Q    Q    Q     Q    Q
|-------------------------------|---------------------------------|
|-------------------------------|-----------------------12---15---|
|-------------------------------|-------12---14---15--------------|
|--------------------------12---|-14------------------------------|
|-----------12---13---14--------|---------------------------------|
|-12---15-----------------------|---------------------------------|


   E        E     E        E     E        E     E        E
|-------------------------------------------------------------|
|-------------------------------------------------------------|
|-------------------------------------------------------------|
|-----------------2-----------------------------0-------------|
|-----------2-----------------------------2--------------0----|
|--0-----------------------0-----3----------------------------|
|
|  |--3--|        |--3--|        |--3--|        |--3--|
|  S  S  S  S  S  S  S  S  S  S  S  S  S  S  S  S  S  S  S  S
|-12h15p12-------12h15p12-------12h15p12-------12h15p12-------|
|----------15p12----------15p12----------15p12----------15p12-|
|-------------------------------------------------------------|
|-------------------------------------------------------------|
|-------------------------------------------------------------|
|-------------------------------------------------------------|


                           ~~~
  +E        E     E        E    +E        E     Q
|-------------------------------------------------------------|
|-------------------------------------------------------------|
|-----------------2-----------------------------0-------------|
|-----------2-----------------------------2-------------------|
|-(0)----------------------3----(3)---------------------------|
|-------------------------------------------------------------|
|
|  |--3--|        |--3--|        |--3--|        |--3--|
|  S  S  S  S  S  S  S  S  S  S  S  S  S  S  S  S  S  S  S  S
|-12h15p12-------12h15p12-------12h15p12-------12h15p12-------|
|----------15p12----------15p12----------15p12----------15p12-|
|-------------------------------------------------------------|
|-------------------------------------------------------------|
|-------------------------------------------------------------|
|-------------------------------------------------------------|


  E5
  Q   Q  H      W
|-------------|------*|
|-------------|------*|
|-------------|------*|
|-------------|------*|
|-2-----------|------*|
|-0-----------|------*|
|
| W             W
|-------------|------*|
|-------------|------*|
|-------------|------*|
|-------------|------*|
|-------------|------*|
|-x\----------|------*|



Duration Legend
---------------
W - whole; H - half; Q - quarter; E - 8th; S - 16th; T - 32nd; X - 64th; a - acciaccatura
+ - note tied to previous; . - note dotted; .. - note double dotted
Uncapitalized letters represent notes that are staccato (1/2 duration)
Irregular groupings are notated above the duration line
Duration letters will always appear directly above the note/fret number it represents the
duration for.  Duration letters with no fret number below them represent rests.  Multi-
bar rests are notated in the form Wxn, where n is the number of bars to rest for.  Low
melody durations appear below the staff

Tablature Legend
----------------
 h   - hammer-on
 p   - pull-off
 b   - bend
 pb  - pre-bend
 r   - bend release (if no number after the r, then release immediately)
 /\  - slide into or out of (from/to "nowhere")
 s   - legato slide
 S   - shift slide
 - natural harmonic
[n]  - artificial harmonic
n(n) - tapped harmonic
 ~   - vibrato
 tr  - trill
 T   - tap
 TP  - trem. picking
 PM  - palm muting
\n/  - tremolo bar dip; n = amount to dip
 \n  - tremolo bar down
 n/  - tremolo bar up
/n\  - tremolo bar inverted dip
 =   - hold bend; also acts as connecting device for hammers/pulls
 <> - volume swell (louder/softer)
 x   - on rhythm slash represents muted slash
 o   - on rhythm slash represents single note slash

Misc Legend
-----------
 |  - bar
||  - double bar
||o - repeat start
o|| - repeat end
*|  - double bar (ending)
 :  - bar (freetime)
 $  - Segno
 &  - Coda
Tempo markers -  = BPM(8/16=s8/s16), where s8 = swing 8ths, s16 = swing 16ths

Tap to rate this tab
# A B C D E F G H I J K L M N O P Q R S T U V W X Y Z