Song name
# A B C D E F G H I J K L M N O P Q R S T U V W X Y Z

Megadeth - Sweating Bullets tab

SWEATING BULLETS
[Megadeth - Countdown To Extinction]
Transcribed By Urayn Cryde
               (B.E Mech)

Standard Tuning

[Intro]

Guitar 1 plays this and
Guitar 2 plays this an octave lower
 
|-----------|-------------|-----------|-----------|
|---------3-|-2-----------|---------3-|-2--/7-4---|
|----2-4----|----4-3--3-4-|----2-4----|---------4-|
|-5---------|-------------|-5---------|-----------|
|-----------|-------------|-----------|-----------|
|-----------|-------------|-----------|-----------|
                                                         
|-----------|-------------|-----------|-----------|
|---------3-|-2-----------|-----------|-----------|
|----2-4----|----4-3--3-4-|-----------|-----------|
|-5---------|-------------|-5---------|-----------|
|-----------|-------------|-----------|-------8-7-|
|-----------|-------------|-----------|-------6-5-|
 
[Figure A]
|-----------|-------------|-----------|-----------|
|-----------|-------------|-----------|-----------|
|-----------|-------------|-----------|-----------|
|-9---------|-------------|-9---------|-----------|
|-7---------|---------8-7-|-7---------|-------8-7-|
|-----------|---------6-5-|-----------|-------6-5-|
                                                               
Repeat Figure A                                                               
Repeat Figure A
                                        Pick Slide
|-----------|-------------|-----------|-----------|
|-----------|-------------|-----------|-\---------|
|-----------|-------------|-----------|---\-------|
|-9---------|-------------|-9---------|-----\-----|
|-7---------|---------8-7-|-7---------|-------\---|
|-----------|---------6-5-|-----------|-----------|

Guitar 1
     
    hold bend....   hold bend....        hold bend....   hold bend....
|-12------^^^^^^--11------|^^^^^^^---|-10-----^^^^^^^---9------|^^^^^^^---|
|-------------------------|----------|-------------------------|----------|
|-------------------------|----------|-------------------------|----------|
|-------------------------|----------|-------------------------|----------|
|-------------------------|----------|-------------------------|----------|
|-------------------------|----------|-------------------------|----------|

Guitar 2
|-------------------------|----------|-------------------------|----------|
|-15<(+1)-^^^^^^--14<(+1)-|^^^^^^^---|-13<(+1)^^^^^^^--12<(+1)-|^^^^^^^---|
|-------------------------------------------------------------------------|
|-------------------------------------------------------------------------|
|-------------------------------------------------------------------------|
|-------------------------------------------------------------------------|
 
Guitar 1
    hold bend....   hold bend....       hold bend..        Let Ring.....
|--8-----^^^^^^^---7------|^^^^^^^---|-6-----^^^^^^------|---------------|
|-------------------------|----------|-------------------|---------------|
|-------------------------|----------|-------------------|---------------|
|-------------------------|----------|-------------------|---------------|
|-------------------------|----------|-------------------|---------------|
|-------------------------|----------|-------------------|---------------|

Guitar 2
|-------------------------|----------|-------------------|---------------|
|-11<(+1)^^^^^^^--10<(+1)-|^^^^^^^---|-9<(+1)^^^^^^------|---------------|
|-------------------------|----------|-------------2/4-0-|---------------|
|-------------------------|----------|-------------------|---------------|
|-------------------------|----------|-------------------|---------------|
|-------------------------|----------|-------------------|---------------|

Guitar 1 
    hold bend....   hold bend....        hold bend....   hold bend....
|-12------^^^^^^--11------|^^^^^^^---|-10-----^^^^^^^---9------|^^^^^^^---|
|-------------------------|----------|-------------------------|----------|
|-------------------------|----------|-------------------------|----------|
|-------------------------|----------|-------------------------|----------|
|-------------------------|----------|-------------------------|----------|
|-------------------------|----------|-------------------------|----------|

Guirtar 2
|-------------------------|----------|-------------------------|----------|
|-15<(+1)-^^^^^^--14<(+1)-|^^^^^^^---|-13<(+1)^^^^^^^--12<(+1)-|^^^^^^^---|
|-------------------------|----------|-------------------------|----------|
|-------------------------|----------|-------------------------|----------|
|-------------------------|----------|-------------------------|----------|
|-------------------------|----------|-------------------------|----------|


Guitar 1 
    hold bend....   hold bend....                                       
|--8-----^^^^^^^---7------|^^^^^^^---|-------------------|
|-------------------------|----------|-------------------|
|-------------------------|----------|-3---2-------------|
|-------------------------|----------|-3---2---5----3-2--|
|-------------------------|----------|---------5----3-2--|
|-------------------------|----------|-------------------|

Guitar 2
|-------------------------|----------|-------------------|
|-11<(+1)^^^^^^^--10<(+1)-|^^^^^^^---|-------------------|
|-------------------------|----------|-------------------|
|-------------------------|----------|-3---2-------------|
|-------------------------|----------|-1---0---5----3-2--|
|-------------------------|----------|---------3----1-0--|

 
                Let Ring............
|---------|---------|---------|-----------|
|---------|---------|---------|-----------|
|---------|---7-----|---------|-----------|
|------9--|-7-9-----|---------|-----------|
|------7--|-5-7-----|---------|-------8-7-|
|---------|---------|---------|-------6-5-|
 
Repeat From Figure A

An Interlude follows and then the solo 

[Solo]
                       Harmonics
|----------------|-----12---------------|
|----------------|--x-----12------------|
|----------------|-x---------12---------|
|----------------|(rake)--------12------|
|---------7------|-----------------12---|
|-0--------------|-----------------12---|
 
|-15-14-13-12-------------------------|-11-10-9-8-----------------------|
|-------------16-15-14-13-------------|-----------12-11-10-9------------|
|-------------------------16-15-14-13-|----------------------12-11-10-9-|
|-------------------------------------|---------------------------------|
|-------------------------------------|---------------------------------|
|-------------------------------------|---------------------------------|
 
|-7-6-5-4-----------------|-------------------------|
|---------8-7-6-5---------|-8-7-6-5-----------------|
|-----------------8-7-6-5-|---------8-7-6-5---------|
|-------------------------|-----------------9-8-7-6-|
|-------------------------|-------------------------|
|-------------------------|-------------------------|
 
|-------------------------|--------------P-P--------|
|-------------------------|-------5---5-8-6-5-6-^^^-|
|-------------------4---4-|-7-4-7---7---------------|
|-------5---5-7-5-7---7---|-------------------------|
|-7-5-7---7---------------|-------------------------|
|-------------------------|-------------------------|
 
|--H-P---------P-P---P----|--H-P--------------------|
|-5-6-5---5-6-8-6-5-6-5---|-5-6-5---5----P-P---P----|
|-------7---------------7-|-------7---7-7-5-4-5-4---|
|-------------------------|-----------------------7-|
|-------------------------|-------------------------|
|-------------------------|-------------------------|
 
|-------------------------|-------------------------|
|--H-P---------P-P---P----|-------------------------|
|-4-5-4---4-5-7-5-4-5-4---|-4-----------------------|
|-------7---------------7-|---7-5-7-5---5-----------|
|-------------------------|-----------7---7-5-7-----|
|-------------------------|-------------------------|
 
 Partial Mute
|-------------------------|-------------------------|
|-------------------------|-------------------------|
|-------------------------|-5-5-5-4-4-4-------------|
|-------5-5-5-4-4-4-7-7-7-|-------------7-7-7-5-5-5-|
|-7-7-7-------------------|-------------------------|
|-------------------------|-------------------------|
 
|-------------------------|-------------------------|
|-------------------------|-------------------------|
|-------------------------|-------4-4-4-5-5-5-7-^^^-|
|-4-4-4-------4-4-4-5-5-5-|-7-7-7-------------------|
|-------7-7-7-------------|-------------------------|
|-------------------------|-------------------------|
 
|-15-----16-----17-----18-----|-19-----20-----21-----22----|
|-----14-----15-----16-----17-|-----18-----19----20-----21-|
|-----------------------------|----------------------------|
|-----------------------------|----------------------------|
|-----------------------------|----------------------------|
|-----------------------------|----------------------------|
 
  (hold)
|-22<(+1)------|---------|--------------|----------|
|--------------|---------|--------------|----------|
|-10-----------|---------|-10-----------|----------|
|-10--10--9--5-|-2-------|-10--10--9--5-|-2--------|
|--8--10--9--5-|-2-------|--8--10--9--5-|-2--------|
|------8--7--3-|-0-------|------8--7--3-|-0--------|
 
                                         Half Time
|--------------|---------|--------------|----------|-----------|
|--------------|---------|--------------|----------|-----------|
|-10-----------|---------|-10-----------|----------|-----------|
|-10--10--9--5-|-2-------|-10--10--9--5-|-2--------|-3-------4-|
|--8--10--9--5-|-2-------|--8--10--9--5-|-2--------|-3-------4-|
|------8--7--3-|-0-------|------8--7--3-|-0--------|-1-------2-|
 
[Figure C]
|---------------------------------|----------------------------------|
|---------------------------------|----------------------------------|
|---------------------------------|----------------------------------|
|---------------------------------|----------------------------------|
|-5-------4-------3-------2-------|-1-------0------------------------|
|---0-2-3---0-2-3---0-2-3---0-2-3-|---0-2-3---0-2-3-4-3-2-1-0-1-2-4--|
 
Repeat Figure C
Repeat Figure C
Repeat Figure C
                     Double Time    hold.......................
|------------------|--------------|----|----|----|----|----|----|--------|
|------------------|-w/flanger----|----|----|----|----|----|----|--------|
|------------------|--------------|----|----|----|----|----|----|--------|
|-6-5-4-3----------|-2------------|----|----|----|----|----|----|--------|
|------------------|-2------------|----|----|----|----|----|----|----8-7-|
|----------4-3-2-1-|-0------------|----|----|----|----|----|----|----6-5-|
 
Back to Figure A and finish song.
 
 



Tap to rate this tab
# A B C D E F G H I J K L M N O P Q R S T U V W X Y Z