Song name
# A B C D E F G H I J K L M N O P Q R S T U V W X Y Z

Megadeth - Blackmail The Universe tab

#----------------------------------PLEASE NOTE---------------------------------#
#This file is the author's own work and represents their interpretation of the #
#song. You may only use this file for private study, scholarship, or research. #
#------------------------------------------------------------------------------#

BLACKMAIL THE UNIVERSE
As recorded by Megadeth
(From the 2004 Album THE SYSTEM HAS FAILED)

Transcribed by livingzombie & abysslord 
	

Words and Music by Dave Mustaine

Gtr I (E A D G B E) - 'Dave Mustaine Rhythm'
Gtr II (E A D G B E) - 'Dave Mustaine Solo'
Gtr III (E A D G B E) - 'Chris Poland'

 Intro
  Q=174
  N.C.
 4/4
  Gtr I
                 PM-----------------------
                 |-3-| |-3-| |-3-| |-3-|
  Wx2            E E E E E E E E E E E E
|------------||--------------------------|
|------------||o-------------------------|
|------------||--------------------------|
|------------||--------------------------|
|------------||o-------------------------|
|------------||--0-0-0-3-2-0-0-0-0-5-3-0-|


 -------------------------------------------------|
  |-3-| |-3-| |-3-| |-3-|   |-3-| |-3-| |-3-| |-3-|
  E E E E E E E E E E E E   E E E E E E E E E E E E
|-------------------------|---------------------------|
|-------------------------|---------------------------|
|-------------------------|---------------------------|
|-------------------------|---------------------------|
|-------------------------|---------------------------|
|-0-0-0-3-2-0-5-3-0-3-2-0-|-0-0-0-3-2-0-0-0-0-5-3-0---|


  PM----------------------------|       PM--|
  |-3-| |-3-| |-3-| |-3-|   |-3-| |-3-| |-3-| |-3-|
  E E E E E E E E E E E E   E E E E E E E E E E E E
|-------------------------|-------------------------|
|-------------------------|-------------------------|
|-------------------------|-------------------------|
|-------------------------|-------------------------|
|-------------------------|-------4-4-4-------3-3-3-|
|-0-0-0-3-2-0-5-3-0-3-2-0-|-2-2-2-------2-2-2-------|


  PM--|       PM--|           PM----------------------------------------------|
  |-3-| |-3-| |-3-| |-3-|     |-3-| |-3-| |-3-| |-3-|   |-3-| |-3-| |-3-| |-3-|
  E E E E E E E E E E E E     E E E E E E E E E E E E   E E E E E E E E E E E E
|--------------------------||-------------------------|-------------------------|
|-------------------------o||-------------------------|-------------------------|
|--------------------------||-------------------------|-------------------------|
|--------------------------||-------------------------|-------------------------|
|-------2-2-2-------3-3-3-o||-------------------------|-------------------------|
|-2-2-2-------2-2-2--------||-0-0-0-3-2-0-0-0-0-5-3-0-|-0-0-0-3-2-0-5-3-0-3-2-0-|


  PM--|       PM--|         PM--|       PM--|
  |-3-| |-3-| |-3-| |-3-|   |-3-| |-3-| |-3-| |-3-|
  E E E E E E E E E E E E   E E E E E E E E E E E E
|-------------------------|-------------------------|
|-------------------------|-------------------------|
|-------------------------|-------------------------|
|-------------------------|-------------------------|
|-------4-4-4-------3-3-3-|-------2-2-2-------3-3-3-|
|-2-2-2-------2-2-2-------|-2-2-2-------2-2-2-------|


  PM----------------------------------------------|
  |-3-| |-3-| |-3-| |-3-|   |-3-| |-3-| |-3-| |-3-|
  E E E E E E E E E E E E   E E E E E E E E E E E E
|-------------------------|----------------------------|
|-------------------------|----------------------------|
|-------------------------|----------------------------|
|-------------------------|----------------------------|
|-------------------------|----------------------------|
|-0-0-0-3-2-0-0-0-0-5-3-0-|-0-0-0-3-2-0-5-3-0-3-2-0----|


   Verse
    F#5         N.C.              F#5         N.C.
                PM------------|               PM------|
    |--3--|  |-3--| |-3-| |-3-|   |--3--|  |-3--| |-3-| |-3-|
    E +E  E +E  E E E E E E E E   E +E  E +E  E E E E E E E E
||------------------------------|-----------------------------|
||o-----------------------------|-----------------------------|
||------------------------------|-----------------------------|
||------------------------------|-----------------------------|
||o-4-(4)-4-(4)-----------------|-4-(4)-4-(4)-----------2-3-4-|
||--2-(2)-2-(2)-2-0-2-3-5-3-2-0-|-2-(2)-2-(2)-2-0-2-3-5-------|


  F#5         N.C.              F#5
              PM------------|               PM------------|
  |--3--|  |-3--| |-3-| |-3-|   |--3--|  |-3--| |-3-| |-3-|
  E +E  E +E  E E E E E E E E   E +E  E +E  E E E E E E E E
|-----------------------------|-------------------------------||
|-----------------------------|------------------------------o||
|-----------------------------|-------------------------------||
|-----------------------------|-------------------------------||
|-4-(4)-4-(4)-----------------|-4-(4)-4-(4)------------------o||
|-2-(2)-2-(2)-2-0-2-3-5-3-2-0-|-2-(2)-2-(2)-2-2-2-2-2-2-2-2---||


    F#5         N.C.
                PM------------|
    |--3--|  |-3--| |-3-| |-3-|
    E +E  E +E  E E E E E E E E
||------------------------------|
||o-----------------------------|
||------------------------------|
||------------------------------|
||o-4-(4)-4-(4)-----------------|
||--2-(2)-2-(2)-2-0-2-3-5-3-2-0-|


  F#5                             F#5         N.C.
              PM------------|                 PM------------|
  |--3--|  |-3--| |-3-| |-3-|     |--3--|  |-3--| |-3-| |-3-|
  E +E  E +E  E E E E E E E E     E +E  E +E  E E E E E E E E
|------------------------------||------------------------------|
|-----------------------------o||------------------------------|
|------------------------------||------------------------------|
|------------------------------||------------------------------|
|-4-(4)-4-(4)-----------------o||-4-(4)-4-(4)------------------|
|-2-(2)-2-(2)-2-2-2-2-2-2-2-2--||-2-(2)-2-(2)-2-0-2-3-5-3-2-0--|


  F#5         N.C.
              PM------|
  |--3--|  |-3--| |-3-| |-3-|
  E +E  E +E  E E E E E E E E
|-----------------------------|
|-----------------------------|
|-----------------------------|
|-----------------------------|
|-4-(4)-4-(4)-----------2-3-4-|
|-2-(2)-2-(2)-2-0-2-3-5-------|


  F#5         N.C.              F#5         N.C.
              PM------------|                       PM----|
  |--3--|  |-3--| |-3-| |-3-|   |--3--|  |-3--| |-3-| |-3-|
  E +E  E +E  E E E E E E E E   E +E  E +E  E E E E E E E E
|-----------------------------|-----------------------------|
|-----------------------------|-----------------------------|
|-----------------------------|-----------------------------|
|-----------------------------|-----------------------------|
|-4-(4)-4-(4)-----------------|-4-(4)-4-(4)-3-2-------------|
|-2-(2)-2-(2)-2-0-2-3-5-3-2-0-|-2-(2)-2-(2)-----5-3-2-0-2-3-|


  G#5         N.C.              G#5         N.C.
              PM------------|               PM------|
  |--3--|  |-3--| |-3-| |-3-|   |--3--|  |-3--| |-3-| |-3-|
  E +E  E +E  E E E E E E E E   E +E  E +E  E E E E E E E E
|-----------------------------|-----------------------------|
|-----------------------------|-----------------------------|
|-----------------------------|-----------------------------|
|-----------------------------|-----------------------------|
|-6-(6)-6-(6)-----------------|-6-(6)-6-(6)-----------4-5-6-|
|-4-(4)-4-(4)-4-2-4-5-7-5-4-2-|-4-(4)-4-(4)-4-2-4-5-7-------|


  G#5         N.C.              G#5
              PM------------|               PM------------|
  |--3--|  |-3--| |-3-| |-3-|   |--3--|  |-3--| |-3-| |-3-|
  E +E  E +E  E E E E E E E E   E +E  E +E  E E E E E E E E
|-----------------------------|------------------------------|
|-----------------------------|------------------------------|
|-----------------------------|------------------------------|
|-----------------------------|------------------------------|
|-6-(6)-6-(6)-----------------|-6-(6)-6-(6)------------------|
|-4-(4)-4-(4)-4-2-4-5-7-5-4-2-|-4-(4)-4-(4)-4-4-4-4-4-4-4-4--|


  Bb5         N.C.              Bb5         N.C.
              PM------------|               PM------|
  |--3--|  |-3--| |-3-| |-3-|   |--3--|  |-3--| |-3-| |-3-|
  E +E  E +E  E E E E E E E E   E +E  E +E  E E E E E E E E
|-----------------------------|-----------------------------|
|-----------------------------|-----------------------------|
|-----------------------------|-----------------------------|
|-----------------------------|-----------------------------|
|-8-(8)-8-(8)-----------------|-8-(8)-8-(8)-----------6-7-8-|
|-6-(6)-6-(6)-6-4-6-7-9-7-6-4-|-6-(6)-6-(6)-6-4-6-7-9-------|


  Bb5         N.C.              Bb5
              PM------------|               PM------------|
  |--3--|  |-3--| |-3-| |-3-|   |--3--|  |-3--| |-3-| |-3-|
  E +E  E +E  E E E E E E E E   E +E  E +E  E E E E E E E E
|-----------------------------|------------------------------|
|-----------------------------|------------------------------|
|-----------------------------|------------------------------|
|-----------------------------|------------------------------|
|-8-(8)-8-(8)-----------------|-8-(8)-8-(8)------------------|
|-6-(6)-6-(6)-6-4-6-7-9-7-6-4-|-6-(6)-6-(6)-6-6-6-6-6-6-6-6--|


    F#5         N.C.
                PM------------|
    |--3--|  |-3--| |-3-| |-3-|
    E +E  E +E  E E E E E E E E
||------------------------------|
||o-----------------------------|
||------------------------------|
||------------------------------|
||o-4-(4)-4-(4)-----------------|
||--2-(2)-2-(2)-2-0-2-3-5-3-2-0-|


  F#5                             F#5         N.C.
              PM------------|                 PM------------|
  |--3--|  |-3--| |-3-| |-3-|     |--3--|  |-3--| |-3-| |-3-|
  E +E  E +E  E E E E E E E E     E +E  E +E  E E E E E E E E
|------------------------------||------------------------------|
|-----------------------------o||------------------------------|
|------------------------------||------------------------------|
|------------------------------||------------------------------|
|-4-(4)-4-(4)-----------------o||-4-(4)-4-(4)------------------|
|-2-(2)-2-(2)-2-2-2-2-2-2-2-2--||-2-(2)-2-(2)-2-0-2-3-5-3-2-0--|


  F#5         N.C.
              PM------|
  |--3--|  |-3--| |-3-| |-3-|
  E +E  E +E  E E E E E E E E
|-----------------------------|
|-----------------------------|
|-----------------------------|
|-----------------------------|
|-4-(4)-4-(4)-----------2-3-4-|
|-2-(2)-2-(2)-2-0-2-3-5-------|


  F#5         N.C.              F#5         N.C.
              PM------------|                       PM----|
  |--3--|  |-3--| |-3-| |-3-|   |--3--|  |-3--| |-3-| |-3-|
  E +E  E +E  E E E E E E E E   E +E  E +E  E E E E E E E E
|-----------------------------|-----------------------------|
|-----------------------------|-----------------------------|
|-----------------------------|-----------------------------|
|-----------------------------|-----------------------------|
|-4-(4)-4-(4)-----------------|-4-(4)-4-(4)-3-2-------------|
|-2-(2)-2-(2)-2-0-2-3-5-3-2-0-|-2-(2)-2-(2)-----5-3-2-0-2-3-|


 Breakdown
  F#E5F#5  E5F#A5      F#E5B5C5B5G5   F#E5F#5  E5F#A5      F#E5B5C5E5  F5
  PM|      PM|         PM|            PM|      PM|         PM|
  E E Q.   E E E   +E  E E E E E Q    E E Q.   E E E   +E  E E E E E E E
|----------------|------------------|----------------|--------------------|
|----------------|------------------|----------------|--------------------|
|----------------|------------------|----------------|--------------------|
|--------------2-|-(2)-----4s5-4----|--------------2-|-(2)-----4s5--------|
|-4-2-4----2-4-0-|-(0)-4-2-2s3-2-5--|-4-2-4----2-4-0-|-(0)-4-2-2s3-2-2-3--|
|-2-0-2----0-2---|-----2-0-------3--|-2-0-2----0-2---|-----2-0-----0-0-1--|


   Verse
                                                        1.,2.,3.
    F#E5F#5  E5F#A5      F#E5B5C5B5G5   F#E5F#5  E5F#A5      F#E5B5C5E5  F5
    PM|      PM|         PM|            PM|      PM|         PM|
    E E Q.   E E E   +E  E E E E E Q    E E Q.   E E E   +E  E E E E E E E  4x
||-----------------|------------------|----------------|--------------------||
||o----------------|------------------|----------------|-------------------o||
||-----------------|------------------|----------------|--------------------||
||---------------2-|-(2)-----4s5-4----|--------------2-|-(2)-----4s5--------||
||o-4-2-4----2-4-0-|-(0)-4-2-2s3-2-5--|-4-2-4----2-4-0-|-(0)-4-2-2s3-2-2-3-o||
||--2-0-2----0-2---|-----2-0-------3--|-2-0-2----0-2---|-----2-0-----0-0-1--||


                                    Solo (Poland)
  4.
  A5F#E5B5C5    E5          F5       N.C.
  Gtr I
    PM|                               PM---|      ~~~                PM---|
  E E E E  E     E     E     E        E     E     Q.                 E     E     E
|---------------------------------||--------------------------------------------------|
|---------------------------------||--------------------------------------------------|
|---------------------------------||--------------------------------------------------|
|-2-----4s=5----------------------||--------------------------------------------------|
|-0-4-2-2s=3-----2-----2-----3----||---------------------------------------------2----|
|---2-0----------0-----0-----1----||--4-----2-----4------------------2-----4----------|
|
| Gtr III
| H        S  S  S  S  S  S  S  S     S  S  S  S  S   S  S  S  S  S  S  S  S  S  S  S
|---------------------------------||--------------------------------------------------|
|---------------------------------||--------------------------------------------------|
|---------------------------------||-----------------------13----13-15-13----13-15-16-|
|------------------------------13-||----13-16-13-----13-16----16----------16----------|
|---------16-14-16-14----14-16----||-16----------16-----------------------------------|
|---------------------16----------||--------------------------------------------------|


          PM---|
  +E      E     E       E  E     E Q
|------------------------------------------|
|------------------------------------------|
|------------------------------------------|
|------------------------------------------|
|-(2)-------------------4s=5-----4---------|
|---------4-----2------------------5-------|
|
|  S   S  S  S  S  E.      Q.         +E
|-----------14------------17b19======(17)r=|
|-14--16-17----17-17b19--------------------|
|------------------------------------------|
|------------------------------------------|
|------------------------------------------|
|------------------------------------------|


    PM-|  ~~~~~~            PM---|                    PM|                PM----------------
    E  E  Q.                E    E       E        +E  E   E    E   E     E     E     E
|----------------------------------------------|------------------------------------------|
|----------------------------------------------|------------------------------------------|
|----------------------------------------------|------------------------------------------|
|----------------------------------------------|------------------------------------------|
|----------------------------------------2-----|--(2)----------4s==5----------------------|
|---4--2--4-----------------2----4-------------|------4---2--------------2-----2-----3----|
|
|  +Q     Q       +S   +S   E.      +S   E        +Q     +E   +E   S  S  S  S  S  S  S  S
|-(17)-----------------------------------------|------------------------------------------|
|--------19b21===(19)r(19)-19b21---(19)-17b19==|=(17)---(17)r(17)-16p14----14-------------|
|----------------------------------------------|------------------------16----16-15-13----|
|----------------------------------------------|---------------------------------------16-|
|----------------------------------------------|------------------------------------------|
|----------------------------------------------|------------------------------------------|


 -------|      ~~~                PM---|
   E     E     Q.                 E     E     E
|--------------------------------------------------|
|--------------------------------------------------|
|--------------------------------------------------|
|--------------------------------------------------|
|---------------------------------------------2----|
|--4-----2-----4------------------2-----4----------|
|
|  S  S  S  S  S   S  S  S  S  S  S  S  S  S  S  S
|--------------------------------------------------|
|--------------------------------------------------|
|-13-----------------------------------------------|
|----16-14-13-----13-------------------------------|
|-------------16-----16-14-13----13----------------|
|-----------------------------16----16-14-12-14-16-|


          PM---|
  +E      E     E E  E     E   Q
|----------------------------------|
|----------------------------------|
|----------------------------------|
|----------------------------------|
|-(2)-------------4s=5-----4-------|
|---------4-----2--------------5---|
|
|  S   S  S  S  Q    Q        +Q
|----------------------------------|
|-----------14---------------------|
|--------16----16---16b18====(16)--|
|-----18---------------------------|
|-14-------------------------------|
|----------------------------------|


                                   D5 C#A5C5B5G5
    PM-|     ~~~       PM---|
                                    |-3-| |-3-|
    E    E   Q.        E    E  E    Q Q Q Q Q Q
|--------------------------------|----------------|
|--------------------------------|----------------|
|--------------------------------|----------------|
|--------------------------------|--7-6---5-4-----|
|------------------------------2-|--5-4-7-3-2-5---|
|---4----2---4---------2----4----|------5-----3---|
|
|                                   ~~
|  +E   +E   E   E  E  Q       E    W
|--------------------------------|----------------|
|---------------------14b16r==14-|----------------|
|-(16)-(16)r16--13-16------------|-13-------------|
|--------------------------------|----------------|
|--------------------------------|----------------|
|--------------------------------|----------------|


   Verse
    F#E5F#5  E5F#A5      F#E5B5C5B5G5   F#E5F#5  E5F#A5      F#E5B5C5E5  F5
    Gtr I
    PM|      PM|         PM|            PM|      PM|         PM|
    E E Q.   E E E   +E  E E E E E Q    E E Q.   E E E   +E  E E E E E E E
||-----------------|------------------|----------------|--------------------||
||o----------------|------------------|----------------|-------------------o||
||-----------------|------------------|----------------|--------------------||
||---------------2-|-(2)-----4s5-4----|--------------2-|-(2)-----4s5--------||
||o-4-2-4----2-4-0-|-(0)-4-2-2s3-2-5--|-4-2-4----2-4-0-|-(0)-4-2-2s3-2-2-3-o||
||--2-0-2----0-2---|-----2-0-------3--|-2-0-2----0-2---|-----2-0-----0-0-1--||


 Bridge
  E5     D5       D5E5    E5F5  F#5    E5       E5F#5   F#G5
                 3/4           4/4             3/4
     PM|    PM|       PM|          PM|    PM|       PM|
  Q  E E Q  E E   E E E E E E   Q  E E Q  E E   E E E E E E
|---------------|-------------|---------------|-------------|
|---------------|-------------|---------------|-------------|
|---------------|-------------|---------------|-------------|
|-2------0------|-0h2-----2-3-|-4------2------|-2h4-----4-5-|
|-2------0------|-0h2-----2-3-|-4------2------|-2h4-----4-5-|
|----0-0----0-0-|-----0-0-----|----0-0----0-0-|-----0-0-----|


  G#5    F#5      F#G#5   C#C5  B5     A5  C5B5  Bb5    G#5 B5Bb5
 4/4             3/4           4/4
     PM|    PM|       PM|          PM|   PM         PM|   PM
  Q  E E Q  E E   E E E E E E   Q  E E E E E E   Q  E E E E E E
|---------------|-------------|----------------|----------------|
|---------------|-------------|----------------|----------------|
|---------------|-------------|----------------|----------------|
|-6------4------|-4h6-----6-5-|-4------2---5-4-|-3----------4-3-|
|-6------4------|-4h6-----4-3-|-2------0---3-2-|-1------6---2-1-|
|----0-0----0-0-|-----0-0-----|----0-0---0-----|----0-0-4-0-----|


  N.C.         E5      F#5 B5C5B5G5   N.C.                 A5BbA5Bb5
  ~          PM        PM|            ~          PM                PM
  Q  E E E E E E   +E  E E E E E Q    Q  E E E E E E   +E  E E E E E E E
|----------------|------------------|----------------|--------------------|
|----------------|------------------|----------------|--------------------|
|--------0-------|------------------|--------0-------|--------------------|
|----4-----0---2-|-(2)-----4s5-4----|----4-----0-----|--------------------|
|--------------2-|-(2)-4-0-2s3-2-5--|----------------|-----7s8-7s8---1----|
|-2----2-----2---|-----2---------3--|-2----2-----2-0-|-(0)-5s6-5s6-0---0--|


  N.C.         A5      F#5 B5C5B5G5
  ~          PM        PM|
  Q  E E E E E E   +E  E E E E E Q
|----------------|------------------|
|----------------|------------------|
|--------0-----2-|-(2)--------------|
|----4-----0---2-|-(2)-----4s5-4----|
|----------------|-----4-0-2s3-2-5--|
|-2----2-----2---|-----2---------3--|


  N.C.                 A5BbA5Bb5     A5BbA5Bb5
  ~          PM                PM
                       |--6--|    |---6----|
  Q  E E E E E E   +E  E E E E E +E  E E E E
|----------------|---------------------------|
|----------------|---------------------------|
|--------0-------|---------------------------|
|----4-----0-----|---------------------------|
|----------------|-----7s8-7s8-------7s8-7s8-|
|-2----2-----2-0-|-(0)-5s6-5s6-0-(0)-5s6-5s6-|


  N.C.         E5      F#5 B5C5B5G5   N.C.                 A5BbA5Bb5
  ~          PM        PM|            ~          PM                PM
  Q  E E E E E E   +E  E E E E E Q    Q  E E E E E E   +E  E E E E E E E
|----------------|------------------|----------------|--------------------|
|----------------|------------------|----------------|--------------------|
|--------0-------|------------------|--------0-------|--------------------|
|----4-----0---2-|-(2)-----4s5-4----|----4-----0-----|--------------------|
|--------------2-|-(2)-4-0-2s3-2-5--|----------------|-----7s8-7s8---2----|
|-2----2-----2---|-----2---------3--|-2----2-----2-0-|-(0)-5s6-5s6-0---0--|


  N.C.         E5      F#5 B5C5B5G5   N.C.
  ~          PM        PM|            ~          PM
  Q  E E E E E E   +E  E E E E E Q    Q  E E E E Q
|----------------|------------------|---------------|
|----------------|------------------|---------------|
|--------0-------|------------------|--------0------|
|----4-----0---2-|-(2)-----4s5-4----|----4-----0----|
|--------------2-|-(2)-4-0-2s3-2-5--|---------------|
|-2----2-----2---|-----2---------3--|-2----2-----2--|


 Solo (Poland)
 3/4                             4/4
  Gtr I
           PM|              PM|           PM------|
  Q    Q   E  E    Q     Q  E E    Q  Q   E  E  E  E
|---------------|---------------|--------------------|
|---------------|---------------|--------------------|
|---------------|---------------|--------------------|
|------2--------|--------3------|-----4--------------|
|---------------|---------------|--------------------|
|-0--------5--3-|--1--------3-5-|--2------5--3--2--3-|
|
| Gtr III
|                        ~~~~~~~~~~~~
| Q    Q   E  E    E  E  H         H      E  E  E  E
|---------------|---------------|--------------------|
|---------------|---------------|--------------------|
|---------16-15-|-16-15---------|-14--------14-16----|
|----/14--------|-------17------|--------17-------14-|
|---------------|---------------|--------------------|
|---------------|---------------|--------------------|


  A5             A5
          PM|                 PM|
   q      E   E   q           E  E
|-----------------------------------|
|-----------------------------------|
|-----------------------------------|
|-----------------------------------|
|--7--------------7-----------------|
|--5------2---3---5-----------2--3--|
|
|                             ~~
|  Q.        +E   S  S  S  S  E  E
|-----------------------------------|
|-----------------------------------|
|-----------------------------------|
|-14b17=====(14)r14p12-14p12--------|
|----------------------------12-10--|
|-----------------------------------|


  N.C.
 3/4
          PM|                              PM-|
   Q   Q  E E    Q            Q            E  E
|-------------|---------------------------------|
|-------------|---------------------------------|
|-------------|---------------------------------|
|------2------|---------------3-----------------|
|-------------|---------------------------------|
|--0------5-3-|--1-------------------------3--5-|
|
|  H.            E      +E   +E      +E   +Q
|-------------|-15b17==(15)-(15)b18-(15)-(15)---|
|-------------|---------------------------------|
|-------------|---------------------------------|
|-------------|---------------------------------|
|-------------|---------------------------------|
|-12\---------|---------------------------------|


                               A5          A5
 4/4
                  PM------|           PM|        PM---|
   Q        Q     E  E  E  E    q     E  E  q    E    E
|----------------------------|--------------------------|
|----------------------------|--------------------------|
|----------------------------|--------------------------|
|-----------4----------------|--------------------------|
|----------------------------|--7-----------7-----------|
|--2--------------5--3--2--3-|--5-----2--3--5----2----3-|
|
|  Q       +Q     E  E  E  E    E  E  E  E  E E  Q
|-17b19===(17)r--15-17-19-15-|-17-19-15-17-19---20b22---|
|----------------------------|--------------------------|
|----------------------------|--------------------------|
|----------------------------|--------------------------|
|----------------------------|--------------------------|
|----------------------------|--------------------------|


  N.C.
 3/4                                        4/4
                 PM|                   PM|                      PM----------|
    Q   Q        E  E    Q      Q      E E    Q        Q        E  E  E     E
|---------------------|--------------------|----------------------------------|
|---------------------|--------------------|----------------------------------|
|---------------------|--------------------|----------------------------------|
|-------2-------------|---------3----------|-----------4----------------------|
|---------------------|--------------------|----------------------------------|
|---0------------5--3-|--1-------------3-5-|--2-----------------5--3--2-----3-|
|
|  +Q.     E     E  E    Q      Q      Q      Q       +E.  +S   E  E  Q
|-(20)----------------|---------------17---|----------------------------------|
|---------22b24-20-22-|-20b22--22b24-------|-21b22===(21)r(21)-17-15----------|
|---------------------|--------------------|-------------------------19b21====|
|---------------------|--------------------|----------------------------------|
|---------------------|--------------------|----------------------------------|
|---------------------|--------------------|----------------------------------|


  A5                                     A5
              PM-|                  PM---|
    q         E   E     q           E     E
|----------------------------------------------|
|----------------------------------------------|
|----------------------------------------------|
|----------------------------------------------|
|---7-------------------7----------------------|
|---5---------2---3-----5-----------2-----3----|
|
|  +E   +E   +E   S  S  S  S  S  S  S  S  S  S
|----------------------------------------------|
|----------------17p15-17p15-------------------|
|-(19)-(19)r(19)-------------17p16p14-17p16p14-|
|----------------------------------------------|
|----------------------------------------------|
|----------------------------------------------|


  N.C.
 3/4
                         PM---|                        PM--|
   Q         Q           E     E     Q        Q        E   E
|---------------------------------|-----------------------------|
|---------------------------------|-----------------------------|
|---------------------------------|-----------------------------|
|------------2--------------------|-----------3-----------------|
|---------------------------------|-----------------------------|
|--0---------------------5-----3--|--1-----------------3---5----|
|
|  S S  S S  S  S  S  S  S  S  E     S S S  S S S S S  S S S  S
|---------------------------------|-----------------------------|
|-----------------10-12-13p12-10\-|-10-8-7--------8-7-----------|
|---------9-11-12-----------------|--------10-9-7-----10-9-7----|
|-12p9-12-------------------------|--------------------------10-|
|---------------------------------|-----------------------------|
|---------------------------------|-----------------------------|


                            A5                        A5
 4/4
                 PM-----|         PM----|              PM---|
  Q        Q     E  E E E    q    E     E q            E     E
|-------------------------|---------------------------------------|
|-------------------------|---------------------------------------|
|-------------------------|---------------------------------------|
|----------4--------------|---------------------------------------|
|-------------------------|--7------------7-----------------------|
|-2--------------5--3-2-3-|--5----2-----3-5------------2-----3----|
|
| S S  S S Q    +H          +Q    Q.         +S   +S   S  S  S  S
|-------------------------|------------------------------12----12-|
|-------------------------|------15b17======(15)r(15)-15----15----|
|-9-7---------------------|---------------------------------------|
|-----10-9-7b8--(7)-------|-(7)-----------------------------------|
|-------------------------|---------------------------------------|
|-------------------------|---------------------------------------|


  N.C.
 3/4
   Q           E      E      E     E       Q             E     E     E      E
|---------------------------------------|-----------------------------------------|
|---------------------------------------|-----------------------------------------|
|---------------------------------------|-----------------------------------------|
|-------------14------------------------|---------------12------------------------|
|--------------------14-----------------|---------------------12------------------|
|-12------------------------12----11----|-10------------------------10------9-----|
|
|  S  S  S  S  E     +S   S  S  S  S  S    E     +S   S  S  S  S  S  E     +S   S
|----------12------------12----------12-|------------12----------12------------12-|
|-15p12-15----15b17r(15)----15p12-15----|-15b17r(15)----15p12-15----15b17r(15)----|
|---------------------------------------|-----------------------------------------|
|---------------------------------------|-----------------------------------------|
|---------------------------------------|-----------------------------------------|
|---------------------------------------|-----------------------------------------|


   Q           E       E        E     E
|------------------------------------------|
|------------------------------------------|
|------------------------------------------|
|-------------10---------------------------|
|---------------------10-------------------|
|--8----------------------------8-----7----|
|
|  S  S  S  S  E      +S   +S   S  S  S  S
|----------12------------------12----12----|
|-15p12-15----17b20==(17)r(17)----15----15-|
|------------------------------------------|
|------------------------------------------|
|------------------------------------------|
|------------------------------------------|


   Q           E     E     E     E
|-------------------------------------|
|-------------------------------------|
|-------------------------------------|
|--------------8----------------------|
|--------------------8----------------|
|--6-----------------------6-----5----|
|
|  S  S  S  S  S  S  S  S  S  S  S  S
|-------------------------12-15-12-15-|
|-13-12----------12-13-15-------------|
|-------14-12-14----------------------|
|-------------------------------------|
|-------------------------------------|
|-------------------------------------|


   Q        E        E  E   E     Q       E  E E E
|------------------------------|-------------------|
|------------------------------|-------------------|
|------------------------------|-------------------|
|-----------6------------------|----------4--------|
|--------------------6---------|-------------4-----|
|--4--------------------4---3--|--2------------2-1-|
|
|  Q       +E       +Q     +E     Q      +H
|-15b17===(15)b19==(15)---(15)r|=21b22--(21)-------|
|------------------------------|-------------------|
|------------------------------|-------------------|
|------------------------------|-------------------|
|------------------------------|-------------------|
|------------------------------|-------------------|


 Solo (Mustaine)
  E5
 4/4
  Gtr I
   PM-----------------------------------------
   |---3----|   |--3---|  |--3--|   |--3---|
   E     E  E   E   E  E  E  E  E   E   E  E
|--------------------------------------------|
|--------------------------------------------|
|--------------------------------------------|
|--------------------------------------------|
|--------------------------------------------|
|--0-----0--0---0---0--0--0--0--0---0---0--0-|
|
| Gtr III
|                                   >
|  Q           +H                  +Q
|-22b24-------(22)----------------(22)-------|
|--------------------------------------------|
|--------------------------------------------|
|--------------------------------------------|
|--------------------------------------------|
|--------------------------------------------|
|
| Gtr II
|  |---3----|   |--3---|  |--3--|   |--3---|
|  E     E  E   E   E  E  E  E  E   E   E  E
|--------------------------------------------|
|--------------------------------------------|
|--------------------------------------------|
|--------------------------------------------|
|--------------------------------------------|
|-12----12-12--10--10-10-13-13-13--12--12-10-|


 ------------------------------------------------------------------------|
   |--3--|  |--3--|  |--3--|  |--3--|    |--3--|  |--3--|  |--3--|  |--3--|
   E  E  E  E  E  E  E  E  E  E  E  E    E  E  E  E  E  E  E  E  E  E  E  E
|-------------------------------------|---------------------------------------|
|-------------------------------------|---------------------------------------|
|-------------------------------------|---------------------------------------|
|-------------------------------------|---------------------------------------|
|-------------------------------------|---------------------------------------|
|--0--0--0--0--0--0--0--0--0--0--0--0-|--0--0--0--0--0--0--0--0--0--0--0--0---|
|
|  W                                     W
|-------------------------------------|---------------------------------------|
|-------------------------------------|---------------------------------------|
|-------------------------------------|---------------------------------------|
|-------------------------------------|---------------------------------------|
|-------------------------------------|---------------------------------------|
|-------------------------------------|---------------------------------------|
|
|  |--3--|  |--3--|  |--3--|  |--3--|    |--3--|  |--3--|  |--3--|  |--3--|
|  E  E  E  E  E  E  E  E  E  E  E  E    E  E  E  E  E  E  E  E  E  E  E  E
|-------------------------------------|---------------------------------------|
|-------------------------------------|---------------------------------------|
|-------------------------------------|---------------------------------------|
|-------------------------------------|---------------------------------------|
|-------------11----------------11----|-14-14-14-12-12-12-15-15-15-14-14-12---|
|-12-10-13-12----13-12-10-13-12----13-|---------------------------------------|


  N.C.                                  E5
  Gtr I
   PM------------------------------------------------------------------------
   |--3--|  |--3--|  |--3--|  |--3--|    |--3--|  |--3--|  |--3--|  |--3--|
   E  E  E  E  E  E  E  E  E  E  E  E    E  E  E  E  E  E  E  E  E  E  E  E
|-------------------------------------|-------------------------------------|
|-------------------------------------|-------------------------------------|
|-------------------------------------|-------------------------------------|
|-------------------------------------|-------------------------------------|
|-----------2--3--5--3--2-------------|-------------------------------------|
|--2--3--5-----------------5--4--3--2-|--0--0--0--0--0--0--0--0--0--0--0--0-|
|
| Gtr II
|  |--3--|  |--3--|  |--3--|  |--3--|    |--3--|  |--3--|  |--3--|  |--3--|
|  E  E  E  E  E  E  E  E  E  E  E  E    E  E  E  E  E  E  E  E  E  E  E  E
|-------------------------------------|-------------------------------------|
|-------------------------------------|-------------------------------------|
|-------------13----------------13----|-13----------------13----------------|
|-14-12-15-14----15-14-12-15-14----15-|----15-14-12-14-15----15-14-12-14-15-|
|-------------------------------------|-------------------------------------|
|-------------------------------------|-------------------------------------|


 ----------------------------------|
   |--3--|  |--3--|  |--3--|  |--3--|
   E  E  E  E  E  E  E  E  E  E  E  E
|--------------------------------------|
|--------------------------------------|
|--------------------------------------|
|--------------------------------------|
|--------------------------------------|
|--0--0--0--0--0--0--0--0--0--0--0--0--|
|
|  |--3--|  |--3--|  |--3--|  |--3--|
|  E  E  E  E  E  E  E  E  E  E  E  E
|--------------------------------------|
|--------------------------------------|
|-16-13----------13-16-13----------13--|
|-------15-14-15----------15-14-15-----|
|--------------------------------------|
|--------------------------------------|


                                        N.C.
   PM------------------------------------------------------------------------
   |--3--|  |--3--|  |--3--|  |--3--|    |--3--|  |--3--|  |--3--|  |--3--|
   E  E  E  E  E  E  E  E  E  E  E  E    E  E  E  E  E  E  E  E  E  E  E  E
|-------------------------------------|-------------------------------------|
|-------------------------------------|-------------------------------------|
|-------------------------------------|-------------------------------------|
|-------------------------------------|-------------------------------------|
|-------------------------------------|-----------2--3--5--3--2-------------|
|--0--0--0--0--0--0--0--0--0--0--0--0-|--2--3--5-----------------5--4--3--2-|
|
|  |--3--|  |--3--|  |--3--|  |--3--|    |--3--|  |--3--|  |--3--|  |--3--|
|  E  E  E  E  E  E  E  E  E  E  E  E    E  E  E  E  E  E  E  E  E  E  E  E
|-------------------------------------|-------------------------------------|
|-15-12----------12-15-12----------12-|-18-15----------15-18-15----------15-|
|-------13-12-13----------13-12-13----|-------16-15-16----------16-15-16----|
|-------------------------------------|-------------------------------------|
|-------------------------------------|-------------------------------------|
|-------------------------------------|-------------------------------------|


  E5
 -------------------------------------------------------------------|
   |-----3-----|     |-----3-----|     |-----3-----|     |-----3-----|
   E     E     E     E     E     E     E     E     E     E     E     E
|-------------------------------------------------------------------------|
|-------------------------------------------------------------------------|
|-------------------------------------------------------------------------|
|-------------------------------------------------------------------------|
|-------------------------------------------------------------------------|
|--0-----0-----0-----0-----0-----0-----0-----0-----0-----0-----0-----0----|
|
|  |------6-------|  |------6-------|  |------6-------|  |------6-------|
|  S  S  S  S  S  S  S  S  S  S  S  S  S  S  S  S  S  S  S  S  S  S  S  S
|-------------------------------------------------------------------------|
|-17p12h17p12h17p12h17p12h17p12h17p12-17p12h17p12h17p12h17p12h17p12h17p12-|
|-------------------------------------------------------------------------|
|-------------------------------------------------------------------------|
|-------------------------------------------------------------------------|
|-------------------------------------------------------------------------|


   PM----------------------------------------------------------------------
   |-----3-----|     |-----3-----|     |-----3-----|     |-----3-----|
   E     E     E     E     E     E     E     E     E     E     E     E
|-------------------------------------------------------------------------|
|-------------------------------------------------------------------------|
|-------------------------------------------------------------------------|
|-------------------------------------------------------------------------|
|-------------------------------------------------------------------------|
|--0-----0-----0-----0-----0-----0-----0-----0-----0-----0-----0-----0----|
|
|  |------6-------|  |------6-------|  |------6-------|  |------6-------|
|  S  S  S  S  S  S  S  S  S  S  S  S  S  S  S  S  S  S  S  S  S  S  S  S
|-------------------------------------------------------------------------|
|-18p12h18p12h18p12h18p12h18p12h18p12-18p12h18p12h18p12h18p12h18p12h18p12-|
|-------------------------------------------------------------------------|
|-------------------------------------------------------------------------|
|-------------------------------------------------------------------------|
|-------------------------------------------------------------------------|


 -------------------------------------------------------------------|
   |-----3-----|     |-----3-----|     |-----3-----|     |-----3-----|
   E     E     E     E     E     E     E     E     E     E     E     E
|--------------------------------------------------------------------------|
|--------------------------------------------------------------------------|
|--------------------------------------------------------------------------|
|--------------------------------------------------------------------------|
|--------------------------------------------------------------------------|
|--0-----0-----0-----0-----0-----0-----0-----0-----0-----0-----0-----0-----|
|
|  |------6-------|  |------6-------|  |------6-------|  |------6-------|
|  S  S  S  S  S  S  S  S  S  S  S  S  S  S  S  S  S  S  S  S  S  S  S  S
|--------------------------------------------------------------------------|
|-17p12h17p12h17p12h17p12h17p12h17p12-17p12h17p12h17p12h17p12h17p12h17p12--|
|--------------------------------------------------------------------------|
|--------------------------------------------------------------------------|
|--------------------------------------------------------------------------|
|--------------------------------------------------------------------------|


  N.C.
   PM----------------------------------------------------------------------
   |-----3-----|     |-----3-----|     |-----3-----|     |-----3-----|
   E     E     E     E     E     E     E     E     E     E     E     E
|-------------------------------------------------------------------------|
|-------------------------------------------------------------------------|
|-------------------------------------------------------------------------|
|-------------------------------------------------------------------------|
|--------------------2-----3-----5-----3-----2----------------------------|
|--2-----3-----5-----------------------------------5-----4-----3-----2----|
|
|  |------6-------|  |------6-------|  |------6-------|  |------6-------|
|  S  S  S  S  S  S  S  S  S  S  S  S  S  S  S  S  S  S  S  S  S  S  S  S
|-------------------------------------------------------------------------|
|-18p12h18p12h18p12h18p12h18p12h18p12-18p12h18p12h18p12h18p12h18p12h18p12-|
|-------------------------------------------------------------------------|
|-------------------------------------------------------------------------|
|-------------------------------------------------------------------------|
|-------------------------------------------------------------------------|


  E5
 -------------------------------------------------------------------|
   |-----3-----|     |-----3-----|     |-----3-----|     |-----3-----|
   E     E     E     E     E     E     E     E     E     E     E     E
|--------------------------------------------------------------------------|
|--------------------------------------------------------------------------|
|--------------------------------------------------------------------------|
|--------------------------------------------------------------------------|
|--------------------------------------------------------------------------|
|--0-----0-----0-----0-----0-----0-----0-----0-----0-----0-----0-----0-----|
|
|  |------6-------|  |------6-------|  |------6-------|  |------6-------|
|  S  S  S  S  S  S  S  S  S  S  S  S  S  S  S  S  S  S  S  S  S  S  S  S
|--------------------------------------------------------------------------|
|-17p12h17p12h17p12h17p12h17p12h17p12-18p12h18p12h18p12h18p12h18p12h18p12--|
|--------------------------------------------------------------------------|
|--------------------------------------------------------------------------|
|--------------------------------------------------------------------------|
|--------------------------------------------------------------------------|


   PM----------------------------------------------------------------------
   |-----3-----|     |-----3-----|     |-----3-----|     |-----3-----|
   E     E     E     E     E     E     E     E     E     E     E     E
|-------------------------------------------------------------------------|
|-------------------------------------------------------------------------|
|-------------------------------------------------------------------------|
|-------------------------------------------------------------------------|
|-------------------------------------------------------------------------|
|--0-----0-----0-----0-----0-----0-----0-----0-----0-----0-----0-----0----|
|
|  |------6-------|  |------6-------|  |------6-------|  |------6-------|
|  S  S  S  S  S  S  S  S  S  S  S  S  S  S  S  S  S  S  S  S  S  S  S  S
|-------------------------------------------------------------------------|
|-17p12h17p12h17p12h17p12h17p12h17p12-18p12h18p12h18p12h18p12h18p12h18p12-|
|-------------------------------------------------------------------------|
|-------------------------------------------------------------------------|
|-------------------------------------------------------------------------|
|-------------------------------------------------------------------------|


 ------------------------------------------|
   |-3--| |----3----|  |-----3-----|  |--3--|
   E E  E E  E      E  E E         E  E  E  E
|----------------------------------------------|
|----------------------------------------------|
|----------------------------------------------|
|----------------------------------------------|
|----------------------------------------------|
|--0-0--0-0--0------0--0-0---------0--0--0--0--|
|
|  |----3----|                        |--3--|
|  Q    Q    Q         E    E         E  E  E
|-12-------------------------------------------|
|-12---14---14b14.5---12---12b12.5-------------|
|------14---14b14.5---12---12b12.5------12h14--|
|------------------------------------14-12h14--|
|----------------------------------------------|
|----------------------------------------------|


                                       Verse
  N.C.                                  E5
   PM----------------------------------------------------------|
   |--3--|  |--3--|  |--3--|  |--3--|    |-3-| |-3-| |-3-| |-3-|
   E  E  E  E  E  E  E  E  E  E  E  E    E E E E E E E E E E E E
|-------------------------------------|--------------------------|
|-------------------------------------|--------------------------|
|-------------------------------------|--------------------------|
|-------------------------------------|--------------------------|
|-----------2--3--5--3--2-------------|--------------------------|
|--2--3--5-----------------5--4--3--2-|--0-0-0-0-0-0-0-0-0-0-3-2-|
|
|                                        >
|                                        ~~
|  |--3--|  |--3--|  |--3--|  |--3--|
|  E  E  E  E  E  E  E  E  E  E  E  E    W
|-------------------------------------|--------------------------|
|-12-14p12----------12-14p12-------14-|-12-----------------------|
|-12-14p12-14-12h14-12-14p12-14-12-14-|-12-----------------------|
|----------14-12h14----------14-12----|--------------------------|
|-------------------------------------|--------------------------|
|-------------------------------------|--------------------------|


  F5                        F#5                       N.C.
  Gtr I
  PM------------------------------------------------------|       PM--------|
  |-3-| |-3-| |-3-| |-3-|   |-3-| |-3-| |-3-| |-3-|   |-3-| |-3-| |-3-| |-3-|
  E E E E E E E E E E E E   E E E E E E E E E E E E   E E E E E E E E E E E E
|-------------------------|-------------------------|--------------------------|
|-------------------------|-------------------------|--------------------------|
|-------------------------|-------------------------|--------------------------|
|-------------------------|-------------------------|--------------------------|
|-------------------------|-------------------------|-------2-3-5-3-2----------|
|-1-1-1-1-1-1-1-1-1-1-4-3-|-2-2-2-2-2-2-2-2-2-2-5-4-|-2-3-5-----------5-4-3-2--|


    E5                        F5
    PM-------------------------------------------------
    |-3-| |-3-| |-3-| |-3-|   |-3-| |-3-| |-3-| |-3-|
    E E E E E E E E E E E E   E E E E E E E E E E E E
||--------------------------|-------------------------|
||o-------------------------|-------------------------|
||--------------------------|-------------------------|
||--------------------------|-------------------------|
||o-------------------------|-------------------------|
||--0-0-0-0-0-0-0-0-0-0-3-2-|-1-1-1-1-1-1-1-1-1-1-4-3-|


  F#5                       N.C.
 -------------------------------|       PM--------|
  |-3-| |-3-| |-3-| |-3-|   |-3-| |-3-| |-3-| |-3-|
  E E E E E E E E E E E E   E E E E E E E E E E E E
|-------------------------|----------------------------||
|-------------------------|---------------------------o||
|-------------------------|----------------------------||
|-------------------------|----------------------------||
|-------------------------|-------2-3-5-3-2-----------o||
|-2-2-2-2-2-2-2-2-2-2-5-4-|-2-3-5-----------5-4-3-2----||


  G#5                       A5                        F5
  PM--------------------------------------|   PM----------------------------|
  |-3-| |-3-| |-3-| |-3-|   |-3-| |-3-| |-3-| |-3-|   |-3-| |-3-| |-3-| |-3-|
  E E E E E E E E E E E E   E E E E E E E E E E E E   E E E E E E E E E E E E
|-------------------------|-------------------------|--------------------------|
|-------------------------|-------------------------|--------------------------|
|-------------------------|-------------------------|--------------------------|
|-------------------------|-------------------------|--------------------------|
|-------------------------|-----------------5-------|--------------------------|
|-4-4-4-4-4-4-4-4-4-4-7-6-|-5-5-5-5-8-5-7-8---8-7-5-|-1-1-1-1-4-1-1-3-4-3-2-1--|


 Solo (Mustaine)
  E5
  Gtr I
   PM-----------------------------------------------------
   |----3----|   |---3---|     |-----3-----| |--3---|
   E E       E   E  E    E     E    E      E E E    E
|--------------------------------------------------------|
|--------------------------------------------------------|
|--------------------------------------------------------|
|--------------------------------------------------------|
|--------------------------------------------------------|
|--0-0-------0---0--0----0-----0----0------0-0-0----0----|
|
| Gtr II
|                ~~~~
|  E    E       +E     S    S  E       +Q         S    S
|--------------------------------------------------------|
|-15---15b17---(15)---15---12-15b17---(15)---------------|
|------------------------------------------------12h==13-|
|--------------------------------------------------------|
|--------------------------------------------------------|
|--------------------------------------------------------|


 ---------------------------------------------|
   |-3--|     |-3--|    |-3-|     |-----3-----|
   E  E E     E  E E    E E E     E    E      E
|-----------------------------------------------|
|-----------------------------------------------|
|-----------------------------------------------|
|-----------------------------------------------|
|-----------------------------------------------|
|--0--0-0-----0--0-0----0-0-0-----0----0------0-|
|
|                     ~~
|  E.      S  E.      Q        S  E       +E
|---------12------------------------------------|
|-12---------15---------------12----------------|
|--------------------12----------14b16r==(14)---|
|-----------------------------------------------|
|-----------------------------------------------|
|-----------------------------------------------|


   PM---------------------------------------
   |-3-|     |-3-|     |-3--|     |-3--|
   E E E     E E E     E  E E     E  E E
|------------------------------------------|
|------------------------------------------|
|------------------------------------------|
|------------------------------------------|
|------------------------------------------|
|--0-0-0-----0-0-0-----0--0-0-----0--0-0---|
|
|  E.     S  E.     S  E.      S  E.     S
|------------------------------------------|
|------------------------------------------|
|-16s====14-13s====10----------------------|
|---------------------12------11-10------9s|
|------------------------------------------|
|------------------------------------------|


  N.C.
 --------------------------------------------------|
   |-3--|     |----3----|     |----3----|     |-3--|
   E  E E     E    E    E     E    E    E     E  E E
|----------------------------------------------------|
|----------------------------------------------------|
|----------------------------------------------------|
|----------------------------------------------------|
|-------------2----3----5-----3----2-----------------|
|--2--3-5-------------------------------5-----4--3-2-|
|
|  E.      S  S  S    S    S  S  S    S    S  Q
|----------------------------------------------------|
|----------------------------------------------------|
|----------------------------------------------------|
|-11-------------------------------------------------|
|---------14-13-12---11------11-----------11---------|
|-------------------------13----13---12------12\-----|


  E5
   PM---------------------------------------------------------------------|
   |--3---|  |--3--|  |--3--|  |--3--|    |--3--|  |--3--|  |--3--|  |--3--|
   E   E  E  E  E  E  E  E  E  E  E  E    E  E  E  E  E  E  E  E  E  E  E  E
|--------------------------------------|-------------------------------------|
|--------------------------------------|-------------------------------------|
|--------------------------------------|-------------------------------------|
|--------------------------------------|-------------------------------------|
|--------------------------------------|-------------------------------------|
|--0---0--0--0--0--0--0--0--0--0--0--0-|--0--0--0--0--0--0--0--0--0--0--0--0-|
|
|  |--3---|  |--3--|  |--3--|  |--3--|    |--3--|  |--3--|  |--3--|  |--3--|
|  E  +E  E  E  E  E  E  E  E  E  E  E    E  E  E  E  E  E  E  E  E  E  E  E
|--------------------------------------|-------------------------------------|
|-12-(12)------------12s15-------------|-15s18-------------18s21-------------|
|--------------10h13-------------13h16-|-------------16h19-------------19h22-|
|---------9h12-------------12h15-------|-------15h18-------------18h21-------|
|--------------------------------------|-------------------------------------|
|--------------------------------------|-------------------------------------|


   PM--------------------------------------------------------------
   |----3-----|     |----3-----|   |----3-----|     |----3-----|
   E     E    E     E    E     E   E     E    E     E    E     E
|-----------------------------------------------------------------|
|-----------------------------------------------------------------|
|-----------------------------------------------------------------|
|-----------------------------------------------------------------|
|-----------------------------------------------------------------|
|--0-----0----0-----0----0-----0---0-----0----0-----0----0-----0--|
|
|  \1____/    \1____/    \1____/   \1____/    \1____/    \1____/
|  |----3-----|     |----3-----|   |----3-----|     |----3-----|
|  E    +E   +E    +E   +E    +E   E    +E   +E    +E   +E    +E
|-----------------------------------------------------------------|
|-----------------------------------------------------------------|
|-19---(19)-(19)--(19)-(19)--(19)-19---(19)-(19)--(19)-(19)--(19)-|
|-----------------------------------------------------------------|
|-----------------------------------------------------------------|
|-----------------------------------------------------------------|


  N.C.
 -------------------------------------------------------------|
   |----3-----|     |----3-----|    |----3-----|     |----3-----|
   E     E    E     E    E     E    E     E    E     E    E     E
|------------------------------------------------------------------|
|------------------------------------------------------------------|
|------------------------------------------------------------------|
|------------------------------------------------------------------|
|-------------------2----3-----5----3-----2------------------------|
|--2-----3----5--------------------------------5-----4----3-----2--|
|
|  \1____/    \1____/    \1____/    \1____/    \1____/    \1____/
|  |----3-----|     |----3-----|    |----3-----|     |----3-----|
|  E    +E   +E    +E   +E    +E   +E    +E   +E    +E   +E    +E
|------------------------------------------------------------------|
|------------------------------------------------------------------|
|-19---(19)-(19)--(19)-(19)--(19)-(19)--(19)-(19)--(19)-(19)--(19)-|
|------------------------------------------------------------------|
|------------------------------------------------------------------|
|------------------------------------------------------------------|


 Verse
  E5                         F5
  Gtr I
   PM--------------------------------------------------
   |-3-| |-3-| |-3-| |-3-|    |-3-| |-3-| |-3-| |-3-|
   E E E E E E E E E E E E    E E E E E E E E E E E E
|--------------------------|--------------------------|
|--------------------------|--------------------------|
|--------------------------|--------------------------|
|--------------------------|--------------------------|
|--------------------------|--------------------------|
|--0-0-0-0-0-0-0-0-0-0-3-2-|--1-1-1-1-1-1-1-1-1-1-4-3-|
|
| Gtr II
|  >
|  ~~
|  W                          W
|--------------------------|--------------------------|
|--------------------------|--------------------------|
|-21-----------------------|--------------------------|
|--------------------------|--------------------------|
|--------------------------|--------------------------|
|--------------------------|--------------------------|
|
| Gtr III
|  W                          W
|--------------------------|--------------------------|
|--------------------------|--------------------------|
|--------------------------|--------------------------|
|--9-----------------------|-10-----------------------|
|--7-----------------------|--8-----------------------|
|--------------------------|--------------------------|


  F#5                        G5
 ---------------------------------|       PM--------|
   |-3-| |-3-| |-3-| |-3-|    |-3-| |-3-| |-3-| |-3-|
   E E E E E E E E E E E E    E E E E E E E E E E E E
|--------------------------|-----------------------------|
|--------------------------|-----------------------------|
|--------------------------|-----------------------------|
|--------------------------|-----------------------------|
|--------------------------|--------2-3-5-3-2------------|
|--2-2-2-2-2-2-2-2-2-2-5-4-|--2-3-5-----------5-4-3-2----|
|
|  W                          W
|--------------------------|-----------------------------|
|--------------------------|-----------------------------|
|--------------------------|-----------------------------|
|--------------------------|-----------------------------|
|--------------------------|-----------------------------|
|--------------------------|-----------------------------|
|
|  W                          W
|--------------------------|-----------------------------|
|--------------------------|-----------------------------|
|--------------------------|-----------------------------|
|-11-----------------------|-12--------------------------|
|--9-----------------------|-10--------------------------|
|--------------------------|-----------------------------|


    E5                        F5
    Gtr I
    PM--------------------------------------------------
    |-3-| |-3-| |-3-| |-3-|    |-3-| |-3-| |-3-| |-3-|
    E E E E E E E E E E E E    E E E E E E E E E E E E
||--------------------------|--------------------------|
||o-------------------------|--------------------------|
||--------------------------|--------------------------|
||--------------------------|--------------------------|
||o-------------------------|--------------------------|
||--0-0-0-0-0-0-0-0-0-0-3-2-|--1-1-1-1-1-1-1-1-1-1-4-3-|
|
|   Gtr III
|   W                          W
||--------------------------|--------------------------|
||o-------------------------|--------------------------|
||--------------------------|--------------------------|
||--9-----------------------|-10-----------------------|
||o-7-----------------------|--8-----------------------|
||--------------------------|--------------------------|


  F#5                        G5
 ---------------------------------|       PM--------|
   |-3-| |-3-| |-3-| |-3-|    |-3-| |-3-| |-3-| |-3-|
   E E E E E E E E E E E E    E E E E E E E E E E E E
|--------------------------|-----------------------------||
|--------------------------|----------------------------o||
|--------------------------|-----------------------------||
|--------------------------|-----------------------------||
|--------------------------|--------2-3-5-3-2-----------o||
|--2-2-2-2-2-2-2-2-2-2-5-4-|--2-3-5-----------5-4-3-2----||
|
|  W                          W
|--------------------------|-----------------------------||
|--------------------------|----------------------------o||
|--------------------------|-----------------------------||
|-11-----------------------|-12--------------------------||
|--9-----------------------|-10-------------------------o||
|--------------------------|-----------------------------||


  G#5                        A5
   PM---------------------------------------|   PM-----
   |-3-| |-3-| |-3-| |-3-|    |-3-| |-3-| |-3-| |-3-|
   E E E E E E E E E E E E    E E E E E E E E E E E E
|--------------------------|--------------------------|
|--------------------------|--------------------------|
|--------------------------|--------------------------|
|--------------------------|--------------------------|
|--------------------------|------------------5-------|
|--4-4-4-4-4-4-4-4-4-4-7-6-|--5-5-5-5-8-5-7-8---8-7-5-|
|
|  W                          W
|--------------------------|--------------------------|
|--------------------------|--------------------------|
|--------------------------|--------------------------|
|-13-----------------------|-14-----------------------|
|-11-----------------------|-12-----------------------|
|--------------------------|--------------------------|


  F5                         E5
 ------------------------|
   |-3-| |-3-| |-3-| |-3-|
   E E E E E E E E E E E E   E  E H.
|--------------------------|------------*|
|--------------------------|------------*|
|--------------------------|------------*|
|--------------------------|------------*|
|--------------------------|-2----------*|
|--1-1-1-1-4-1-1-3-4-3-2-1-|-0----------*|
|
|  W                         Q    H.
|--------------------------|------------*|
|--------------------------|------------*|
|--------------------------|------------*|
|-10-----------------------|-9\---------*|
|--8-----------------------|-7\---------*|
|--------------------------|------------*|



Duration Legend
---------------
W - whole; H - half; Q - quarter; E - 8th; S - 16th; T - 32nd; X - 64th; a - acciaccatura
+ - note tied to previous; . - note dotted; .. - note double dotted
Uncapitalized letters represent notes that are staccato (1/2 duration)
Irregular groupings are notated above the duration line
Duration letters will always appear directly above the note/fret number it represents the
duration for.  Duration letters with no fret number below them represent rests.  Multi-
bar rests are notated in the form Wxn, where n is the number of bars to rest for.  Low
melody durations appear below the staff

Tablature Legend
----------------
 h   - hammer-on
 p   - pull-off
 b   - bend
 pb  - pre-bend
 r   - bend release (if no number after the r, then release immediately)
 /\  - slide into or out of (from/to "nowhere")
 s   - legato slide
 S   - shift slide
 - natural harmonic
[n]  - artificial harmonic
n(n) - tapped harmonic
 ~   - vibrato
 tr  - trill
 T   - tap
 TP  - trem. picking
 PM  - palm muting
\n/  - tremolo bar dip; n = amount to dip
 \n  - tremolo bar down
 n/  - tremolo bar up
/n\  - tremolo bar inverted dip
 =   - hold bend; also acts as connecting device for hammers/pulls
 <> - volume swell (louder/softer)
 x   - on rhythm slash represents muted slash
 o   - on rhythm slash represents single note slash

Misc Legend
-----------
 |  - bar
||  - double bar
||o - repeat start
o|| - repeat end
*|  - double bar (ending)
 :  - bar (freetime)
 $  - Segno
 &  - Coda
Tempo markers -  = BPM(8/16=s8/s16), where s8 = swing 8ths, s16 = swing 16ths

Tap to rate this tab
# A B C D E F G H I J K L M N O P Q R S T U V W X Y Z