Meja - All About The Money tab

-------------------------------------------------------------------------------
		All About The Money - Meja
-------------------------------------------------------------------------------
Tabbed by: Michael
Email: boomkinman@gmail.com

Tuning: EADGBe (Standard)

CAPO 4th Fret
Can be played without the E# (B-string). It just puts a nicer ring to it.

Intro

e -------------------------------------------------------------------------------------------|
B ---------------------------------------------------------1-1-1-----------------------------|
F -------------------------------------------------------------------------------------------|
D ----------------------------------------------------0-2-3-3-2-2-0--------------------------|
A --------0-0-0----0-0-0------0-0---0-0-0----0-0-0------------------3--3-2-0-----------------|
E ----3b--------3b--------3b-----3b-------3b-------3b------------------------3-55-33-2-------|



The chords used to play with capo or without
Finding the right chords is harder than figuring out the strum pattern,
and finding out yourself (i.e when to switch chords) is key to improving.
Thus only posting chords, and nothing else.



e --4---7---9---7---7---4---7---9---7---7---5---?--4---4--4---4----|
B --5---9---7---9---7---5---9---7---9---7---5---?--4---4--5---7----|
G --6---8---8---8---7---6---8---8---8---7---6---?--6---5--6---8----|
D --7---9---9---9---7---7---9---9---9---7---7---7--6---6--7---9----|
A --4---7---7---7---7---7---7---7---7---7---7---7--6---6--7---9----|
E --7---x---x---x---x---x---x---x---x---x---5---x--4---4--x---x----|



************************************

| /   slide up
| \   slide down
| h   hammer-on
| p   pull-off
| ~   vibrato
| +   harmonic
| x   Mute note
| b   Bend
| pb  Pre-bend
| br  Bend release
| pbr Pre-bend release
| brb Bend release bend

************************************
Tap to rate this tab
 
# A B C D E F G H I J K L M N O P Q R S T U V W X Y Z