Song name
# A B C D E F G H I J K L M N O P Q R S T U V W X Y Z

Melda Ahmad - Kimia tab

Assalamualaikum…

Artist	: Melda Ahmad
Song	: Kimia
Tuning	: Standard

Aku dgr lgu nie cmbez jew plucking dye,aku try r dgr sket2..
Last skali,nie jew r yg aku bley wt,aku maen cmnie rse cm ok jew..huhu
K,enjoy !

Intro (tali yg atas2 let ring r,bg sdp..dgr lgu sng nk phm)
   C                            Em
e|----------0-----0--------0---|----------0-----0--------0---|
B|----1-----1-----1--------1-1-|----0-----0-----0--------0-0-|
G|----0-----0-----0------0-----|----0-----0-----0--------0---|
D|------2-2----------2-2-------|-------------2---------2-----|
A|-3-----------3---------------|------2-2----------2-2-------|
E|-----------------------------|-0---------------------------|

   F                             G
e|----1-----1-----1--------1--|----3-----3-----3--------3--|
B|----1-----1-----1--------1--|----3-----3-----3--------3--|
G|----2-----2-----2------2-2--|----4-----4-----4------4-4--|
D|------3-3----------3-3------|------5-5----------5-5------|
A|-------------3--------------|-------------5--------------|
E|-1--------------------------|-3--------------------------|

Verse (Maen sme cm intro.)
 C                    Em
Aku mula jatuh hati kepadamu
    F                       G
Setelah kau kata cinta padaku…
  C                         Em
Masing-masing dulu punya pasangan
 F                  G
Akhirnya kita bersama…
     C                         Em
Pertama kali kita bersua bertentang mata
    F                    G
Terasa ada kimia di antara kita

Chorus 1
    C                  Em
Kau kucup pipiku,kau bisikkan cintamu,
      F                      G
Kau kata baby I love u,kau cairkan hatiku………
   G 
   Whoa..whoaohoh
e|-3~--------------3-------|
B|-3~----------------3-----|
G|-4~------------------4---|
D|-5~--------------------5-|
A|-5~----------------------|
E|-3~----------------------|


Chorus 2
    C         Em
Bahagia ku rasa,
    F                    G
Disaat kita berdua bersama,
     C
Memandang bulan terang,
      Em
Menyaksi bintang-bintang,

(tym nie sme jew,cuma pendekkan F n G jew.)
      F            G           C
Kau seru aku lah pelangi cintamu
(Cmnie..)
e|----1-----1------3---------3--|
B|----1-----1------3---------3--|
G|----2-----2------4-------4-4--|
D|------3-3------------5-5------|
A|------------------------------|
E|-1------------3---------------|


Guitar Solo (sme gk)

Ulg Chorus 1
de ubah sket tym “..cairkan hatiku..”..Erm,strum chord G jew r.

Ulg Chorus 2

Ending
      F            G           C
Kau seru aku lah pelangi cintamu. . .
e|----1~-------------3~----3-----|-0~--------|
B|----1~-------------3~------3---|-1~--------|
G|----2~-------------4~--------4-|-0~--------|
D|----3~-------------5~----------|-2~--------|
A|----3~-------------5~----------|-3~--------|
E|----1~-------------3~----------|-----------|


xxxxxxxxxxxxxxxxxxxxxxxxxxxxxxxxxxxxxxxxxxxxxxxxxxxxxxxxxxx
comment and rate if u like
ok…any considerable requests please contact me..
zar_of_filth92@yahoo.com
juz search in fb

Assalamualaikum…
Tap to rate this tab
 
# A B C D E F G H I J K L M N O P Q R S T U V W X Y Z