Song name
# A B C D E F G H I J K L M N O P Q R S T U V W X Y Z

Melechesh - Gyroscope tab

Well, the tuning is standart in this song. took me about 10 minutes to do this, i didnt 
the solo part though, perhaps i will add it later, and the solo rythm was pretty 
to hear over the other instruments so i hope i got it right...

|-----------------------------------------------------|
|-----------------------------------------------------|
|-----------------------------------------------------|
|-------------------------------------------------5---|
|-6--5h6p5--3---5--3h5p3--2----2-3-2h3p2----------5---|
|----------------------------4------------4-3-4---3---|

|s10-10-10-10--8-7-8-s10~-------|
|-------------------------------|
|-------------------------------|
|-------------------------------|
|-------------------------------|
|-------------------------------|

Main Riff:
|-----------------------------------------------------------------|
|-----------------------------------------------------------------|
|-----------------------------------------------------------------|
|-3h5-55-3-5-3-6--3h5-55-3-5-6-3--3h5-55-3-5-3-6--3h5-55--1-1-3-0-|
|-----------------------------------------------------------------|
|-----------------------------------------------------------------|
After doing this riff about four times do the solo riff

Solo Riff:
|----------------|
|----------------|
|----------------|
|-5-----10--8--3-|
|-5-----10--8--3-|
|-3------8--6--1-|
Do this a few times and then return to the main riff
Tap to rate this tab
# A B C D E F G H I J K L M N O P Q R S T U V W X Y Z