Song name
# A B C D E F G H I J K L M N O P Q R S T U V W X Y Z

Meliah Rage - Enter The Darkness tab

-------------------------------------------------------------------------------
			     SONG NAME - Band Name
-------------------------------------------------------------------------------
Tabbed by: Dave "Alhazred"
Email: theshroom420@hotmail.com

Band website: http://www.myspace.com/meliahrage

Tuning:

I can only get the intro so far, but I'll update it once I learn more of the parts

They're a thrash metal band that is pretty much playing NWOBHM, so it is in such a heavy
in this song, so it's hard to tell if they're sliding or picking in some of these notes
the main riff. Personally, I slide when the chords move back to eachother, but they 
like they're being picked on the studio. Just do what you think sounds right

e|----------------------------------------------------------------------------|
B|----------------------------------------------------------------------------|
G|-------9-----7-9------------------------------------------------------------|
D|-------9-----7-9--------7-8-7-5----5-7--------------------------------------|
A|-2-2---7-----5-7--------7-8-7-5----5-7--------------------------------------|
E|-0-0---7--0--5-7--0-0---5-6-5-3--0-3-5--------------------------------------|

ee|-----------------------------------------------------------------------------|
B|------------------------------------------------------------------------------|
G|-------9-----7-9--------------------------------------------------------------|
D|-------9-----7-9--------7-8-7-5-----------------------------------------------|
A|-2-2---7-----5-7--------7-8-7-5-----------------------------------------------|
E|-0-0---7--0--5-7--0-0---5-6-5-3-----------------------------------------------|


************************************

| /   slide up
| \   slide down
| h   hammer-on
| p   pull-off
| ~   vibrato
| +   harmonic
| x   Mute note
| b   Bend
| pb  Pre-bend
| br  Bend release
| pbr Pre-bend release
| brb Bend release bend

************************************
Tap to rate this tab
 
# A B C D E F G H I J K L M N O P Q R S T U V W X Y Z