Song name
# A B C D E F G H I J K L M N O P Q R S T U V W X Y Z

Melissa Nkonda - Nouveaux Horizons tab

e|---------5------------|---------5-----------|
B|------6-----6---------|------5-----5--------|
G|--7-------------------|---5-----------------|
D|----------------------|---------------------|
A|----------------------|---------------------|
E|----------------------|---------------------|

e|--------------3-------|--------------------------|
B|---------3---------3--|---------1---------1---3--|
G|----3-----------------|----3----------2----------|
D|----------------------|--------------------------|                  
A|----------------------|--------------------------|
E|----------------------|--------------------------|
Tap to rate this tab
 
# A B C D E F G H I J K L M N O P Q R S T U V W X Y Z