Song name
# A B C D E F G H I J K L M N O P Q R S T U V W X Y Z

Mellencamp John Cougar - Jack & Diane tab


Intro:

   
------------|-------0--|--2---2-2----------|-----------|------------2--------|
----2---2-2-|-0---0-0--|--3---3-3---0---0-0|---2---2-2-|-0---0-0----3-0-0-2--|
----2---2-2-|-1---1-1--|--2---2-2---1---1-1|---2---2-2-|-1---1-1----2-1-2-2--|
----2---2-2-|-2---2-2--|--0---0-0---2---2-2|---2---2-2-|-2---2-2----0-0-1-2--|
------------|----------|-------------------|-----------|---------------------|
------------|----------|-------------------|-----------|---------------------|



 A  little ditty about   Jack and Di-ane,______ two american kids growing up
----------|--0----0-0--|--2---22---0--00|------|------------|-0------0----0---|
-2---2-2--|--0----0-0--|--3---33---0--00|------|-2---2-2----|-0------0----0---|
-2---2-2--|--1----1-1--|--2---22---1--11|------|-2---2-2----|-1------1----1---|
-2---2-2--|--2----2-2--|--0---00---2--22|------|-2---2-2----|-2------2----2---|
----------|--2----2-2--|-----------2--22|------|------------|-2------2----2---|
----------|------------|----------------|------|------------|-----------------|


 in  the heart  land.
--2---0----0----0-----|
--3---0----0----2-----|
--2---1----1----2-----|
--0--------2----2-----|
-----------2----------|
----------------------|




 Jak, he's gon na be_____ a football star        Diane debutante in the back seat
----------|--0----0-0--|--2---2-2---0--00|------|------------|-0------0----0---|
-2---2-2--|--0----0-0--|--3---3-3---0--00|------|-2---2-2----|-0------0----0---|
-2---2-2--|--1----1-1--|--2---2-2---1--11|------|-2---2-2----|-1------1----1---|
-2---2-2--|--2----2-2--|--0---0-0---2--22|------|-2---2-2----|-2------2----2---|
----------|--2----2-2--|------------2--22|------|------------|-2------2----2---|
----------|------------|-----------------|------|------------|-----------------|


 of  jack- y's car.
--2---0----0----0-----|
--3---0----0----2-----|
--2---1----1----2-----|
--0--------2----2-----|
-----------2----------|
----------------------|



------------|-------0--|--2---2-2----------|-----------|------------2--------|
----2---2-2-|-0---0-0--|--3---3-3---0---0-0|---2---2-2-|-0---0-0----3-0-0-2--|
----2---2-2-|-1---1-1--|--2---2-2---1---1-1|---2---2-2-|-1---1-1----2-1-2-2--|
----2---2-2-|-2---2-2--|--0---0-0---2---2-2|---2---2-2-|-2---2-2----0-0-1-2--|
------------|----------|-------------------|-----------|---------------------|
------------|----------|-------------------|-----------|---------------------|



Suckin on a chilli dog outside the tasty freeze_____ Diane sittin   on   jacky's lap
----------|--0----0-0--|--2---22---0--00|-------------------------|-0------0------0---|
-2---2-2--|--0----0-0--|--3---33---0--00|-----------|-2----2-2----|-0------0------0---|
-2---2-2--|--1----1-1--|--2---22---1--11|-----------|-2----2-2----|-1------1------1---|
-2---2-2--|--2----2-2--|--0---00---2--22|-----------|-2----2-2----|-2------2------2---|
----------|--2----2-2--|-----------2--22|-----------|-------------|-2------2------2---|
----------|------------|----------------|-----------|-------------|-------------------|

he's got his hands between her knees.
--------------2-------0----0----0-----|
----------0---3-------0----0----2-----|
------1-------2-------1----1----2-----|
-2------------0------------2----2-----|
---------------------------2----------|
--------------------------------------|


                 E                             D                   E
Jack, he says, "Hey,  Di - ane let's run off behind the shad - y  tree;________

  A           E                             D     E     A
dribble off those bob - bie brooks.  Let me do what I please"





 Oh   yeah,___          Life   goes   on____
--------0-----|--0-------2------2------0-----0-------|
--2-----0-----|----0-----3------3------0-------0-----|
--2-----1-----|------1---2-------------1---------1---|
--2-----2-----|----------0-------------2-------------|
--------2-----|------------------------2-------------|
--------------|--------------------------------------|






Tap to rate this tab
# A B C D E F G H I J K L M N O P Q R S T U V W X Y Z