Song name
# A B C D E F G H I J K L M N O P Q R S T U V W X Y Z

Melody Gardot - Gone tab

----------------------------------------------------------------- 
                     Gone - Melody Gardot
----------------------------------------------------------------- 

Tabbed by: Alex Dzyoba
Email: avd@reduct.ru

Tuning: Standart


Intro
-----

e|-----------|-----------|
B|---11------|---11------|
G|------10---|------10---| 
D|-----------|-----------| x4
A|-9-------9-|-8-------8-|
E|-----------|-----------|


Verse
-----

e|-------------|--------------|------------|-------------|
B|----11-------|----11--------|---7--------|----7--------|
G|-------10----|-------10-----|------6-----|-------6-----|
D|-------------|--------------|------------|-------------|
A|--9-------9--|-8--------(8)-|-6-------6--|-4-------(4)-|
E|-------------|--------------|------------|-------------|

e|-------------|--------------|------------|-------------|
B|----12-------|----12--------|---12-------|----6--------|
G|-------11----|-------11-----|------11----|-------4-----|
D|-------------|--------------|------------|-------------| x2
A|-11-------11-|-10-------10--|-9------(9)-|-4-------(4)-|
E|-------------|--------------|------------|-------------|

Verse ending
------------ 

e|-------------|--------------|------------|------------|
B|----11-------|----11--------|---8--------|--8---------|
G|-------10----|-------10-----|------6-----|-(6)--------|
D|-------------|--------------|------------|------------|
A|--9-------9--|-8--------(8)-|-6-------6--|------------|
E|-------------|--------------|------------|------------|

e|-------------|--------------|
B|----12-------|-----6--------|
G|-------11----|--------4-----|
D|-------------|--------------|
A|-11------(11)|--4-------(4)-|
E|-------------|--------------|

Interlude
---------

e|-----------|-----------|
B|---11------|---11------|
G|------10---|------10---| 
D|-----------|-----------| x4
A|-9-------9-|-----------|
E|-----------|-9-------9-|

Verse x2
Verse ending
Interlude x2

Bridge
------

e|-------|-------|-------|--------|
B|----12-|-------|----12-|-----12-|
G|----11-|----10-|----11-|-----11-|
D|-------|----9--|-------|--------|
A|-11----|-------|-11----|--------|
E|-------|-11----|-------|-11-----|

e|-------|-------|-------|--------|
B|----11-|-------|----11-|----11--|
G|----10-|----10-|----10-|----10--|
D|-------|----11-|-------|--------| x2
A|--9----|-------|-9-----|--------|
E|-------|-9-----|-------|-9------|

Intro x4
Verse x2
Verse ending 

Song ending
-----------
                  By the time     that I do  you'll be
e|-----------|-----------|-------------|--------------|
B|---11------|---11------|----12-------|-----6--------|
G|------10---|------10---|-------11----|--------4-----| 
D|-----------|-----------|-------------|--------------|
A|-9-------9-|-----------|-11------(11)|--4-------(4)-|
E|-----------|-9-------9-|-------------|--------------|
   Gone              
e|-----------|-----------|-------------|--------------|
B|---11------|---11------|----12-------|-----6--------|
G|------10---|------10---|-------11----|--------4-----| 
D|-----------|-----------|-------------|--------------|
A|-9-------9-|-----------|-11------(11)|--4-------(4)-|
E|-----------|-9-------9-|-------------|--------------|

Interlude x4
Tap to rate this tab
# A B C D E F G H I J K L M N O P Q R S T U V W X Y Z