Song name
# A B C D E F G H I J K L M N O P Q R S T U V W X Y Z

Melvins - Civilized Worm tab

This is my first tab, and apparently the only tab for this song in existence.
It's probably not 100% (in fact, I know it's not, because I haven't tabbed the outro 
feel free to post any fixes, as I also want to play this song correctly.

Standard Tuning

Intro/Verse

e|--------------------------------------------------------|
B|--------------------------------------------------------|
G|-----------------------------------444------------------|
D|----6-66-5/77-6-66-6\44-6-66-------222-0h2-5p2-0h2------|
A|2-2-4-44-3/55-4-44-4\22-4-44--2222----------------------|
E|0-0---------------------------0000----------------------|

Solo

e|------------------------------------------------------------------------------|
B|------------------------------------------------------------------------------|
G|-9-9h12-9h12-9h12-9h12-9------------------------------------------------------|
D|--------------------------12-12-11-12-11-12p11p9h11-12p11p9-14-14-14-14-14-14-|
A|------------------------------------------------------------------------------|
E|------------------------------------------------------------------------------|

I'm not sure how Buzz does the scratching sound after that, but it kicks ass.

Please comment (preferably with corrections)
Tap to rate this tab
# A B C D E F G H I J K L M N O P Q R S T U V W X Y Z