Guitaretab - guitar tabs
Song name
# A B C D E F G H I J K L M N O P Q R S T U V W X Y Z

Melvins - Going Blind tab

this tab is based from the melvins houdini live album
intro and verses

e---------------------------------------------------|
B---------------------------------------------------|
G---5-555-------------------------------------------|
D---5-555-3-2-333/-7-77-77/-5-5555--7-9-12-14/2-22--|
A---3-333-3-2-333/-7-77-77/-5-5555--7-9-12-14/2-22--|
E---------1-0-111/-5-55-55/-3-3333--5-7-10-12/0-00--|

       And i know how it's to be...
chorus

e-------------------------------------------------------|
B-------------------------------------------------------|
G-------------------------------------------------------|
D--7-777777--55555555--22222222--7-5-------5------7-----| continues with
A--7-777777--55555555--22222222------7-5-7---7-5*-7-----| chorus or verse
E--5-555555--33333333--02222222-------------------5- 5--| solo will begin
                                                     after this note
        cuz I think I'm going blind...
at 2:16ish solo. v=vibrato, b=bend, /=slide
[ Tab from: http://www.guitaretab.com/m/melvins/63896.html ]
e-------------------------------------------------------------------------|
B----------------------------10b10b10b10b10b10b10b/-2/3-333-3-5v-3-5v-3-5-|v
G--8big--8v8v8v8v8v8v8v-7-5-----------------------------------------------|
D---bend------------------------------------------------------------------|
A-------------------------------------------------------------------------|
E-------------------------------------------------------------------------|

e---------------------------------------| repeat this solo twice
B---------------------------------------| and end with: and will return to the chorus
G--2-4-2-4v-2-4v-2-4v-/8---  G----------|
D--------------------------  D------7---|
A--------------------------  A------7---|
E--------------------------  E------5---|

variant of verse, played after solo
e--------------------------------------------------|
B--------------------------------------------------|
G---5-555------------------------------------------|
D---5-555-3-2-333/-7-x5-x3-2-22/5--7-9-12-14/2-22--|
A---3-333-3-2-333/-7-x5-x3-2-22/5--7-9-12-14/2-22--|
E---------1-0-111/-5-x3-x1-0-00/3--5-7-10-12/0-00--|

    you're much younger
              can't you seeeeeeeeeee...

verse x 4, words start on third repetition
chorus x 2
verse x 2
chorus x 2
solo
chorus x 2
variant verse x 2
chorus x 2
variant verse(outro) x 1

Enjoy.. questions, comments, email me at ryan-26-@hotmail.com
Related for Going Blind tab
Going Blind chords by Melvins