Song name
# A B C D E F G H I J K L M N O P Q R S T U V W X Y Z

Menomena - My My tab

-------------------------------------------------------------------------------
			     MY MY - Menomena
-------------------------------------------------------------------------------
Tabbed by: O Henry
Email: reducedfatcreamy@yahoo.com

Tuning: Standard


Clean:  This riff is played several times through out the song.
e|---------------------------------------------------------------------------|
B|--3-3-3-3-2-2-2-3p2-3-3-3-3-2-2-2-3p2--------------------------------------|
G|---4-4-4-4-4-4-4---4-4-4-4-4-4-4-4---4-------------------------------------|
D|---------------------------------------------------------------------------|
A|---------------------------------------------------------------------------|
E|---------------------------------------------------------------------------|

These are what I think are the cords for the acoustic part:
B, D, A, G, B, D, A, B, C#/Db, D, E, F#/Gb, E, D, E


Distorted: (2:49-3:06)
e|------0--------------------------------------------------------------------|
B|--2-3---3-2-3--------------------------------------------------------------|
G|--------------2------------------------------------------------------------|
D|-----------------4h5-7--4h5-7~~~-------------------------------------------|
A|---------------------------------------------------------------------------|
E|---------------------------------------------------------------------------|

Distorted:  This little part you hear is displaced in random places throughout the song, 
it's just pinched notes, and doesn't matter too much how you play it.
e|--3+---------5+--------7+--------------------------------------------------|
B|--3+---------5+--------7+--------------------------------------------------|
G|--3+-----O---5+----O---7+--------------------------------------------------|
D|--3+-----R---5+----R---7+--------------------------------------------------|
A|--3+---------5+--------7+--------------------------------------------------|
E|--3+---------5+--------7+--------------------------------------------------|

lyrics:
What if all my enemies were dead
and i could forget everything they said
could I be then who I really am?

What if I sold everything I own
And ran away from everyone I know
could I make another place my home?

And if I let go all of my ghosts
who would I dump over the months?

What if everyone is right?
Should've taken their advice
But I can't change my mind

And if I let go all of my ghosts
who would I dump over the months?

(What if everybody else is right?
should've taken more of their advice)


| /  slide up
| \  slide down
| h  hammer-on
| p  pull-off
| ~  vibrato
| +  harmonic
| x  Mute note
===============================================================================
Tap to rate this tab
# A B C D E F G H I J K L M N O P Q R S T U V W X Y Z