Song name
# A B C D E F G H I J K L M N O P Q R S T U V W X Y Z

Merchant Natalie - Ophelia tab

Highlighted       Show chord diagrams
----------------------------------------------------------------------------
			     Ambulance LTD - Ophelia
----------------------------------------------------------------------------
Tabbed by: tyler
Email: disconnect.the.dotss@gmail.com

Tuning: standard

key

e|---5---0----2----4----0----7------|
B|---5---2----2----5----0----7------|
G|---6---2----3----6----1----7------|
D|---7---2----4----6----2----9------|
A|---7---0----4----4----2----9------|
E|---5---x----2----x----x----7------|
         A      A(2)      F#      C#m       
      Bm


these two riffs repeat throughout the song

          riff 1
e|--------------------------------|
B|--------------------------------|
G|---------1-1--------------------|
D|---2--4-------4-2-1-------------|
A|---------------------4----------|
E|--------------------------------|

              riff 2
e|------------------------------------|
B|------------------------------------|
G|------------------------------------|
D|------------------------------------|
A|----7-7-6-4-4-----------------------|
E|---------------7-5------------------|

introduction

A F# A F#     repeat

E                      C#m
Theres still life in the heart
         A
Your coming down
         F#
Im going with you
   E                              C#m                     A
Its easier in the soft light of the shimmering
       F#
Shine windows

  E                                     C#m
And babe, Id like you to meet someone
      A                                F#
When you meet her, please be serious
      E                           C#m
She thinks it doesnt matter
           A                                       F#                A(2)
If you're familiar with her sisters, and her disease

chorus (the strumming pattern is a little confusing)

C#m           F#           A(2)
I hate the one thing I need
 C#m              F#                  A(2)
I just dont trust you now, baby
C#m       F#       A(2)         C#m        F#
All over the leaves on the ground
 A(2)               F#
I walk around


E    C#m    A   F#    repeat


E                                 C#m
I'm late for hundreds of things
                    A                                      F#
The walls are thin but I cant reach through them
E                                      C#m
I'm chasing dragons down the streets
                  A                                F#
My eyes are feeble and filled with poison

E                                       C#m
And babe, Im just like the best thing
                    A                          F#
That could happen, happen to someone
E                                C#m
Now I'm seething from the inside
                  A
Plastered to the outside
          F#m                       A(2)
Reaching to your side, under the sheets


C#m           F#           A(2)
I hate the one thing I need
 C#m              F#                  A(2)
I just dont trust you now, baby
C#m       F#       A(2)         C#m        F#
All over the streets on the town
 A(2)               F#
I walk around


A                               F#
In the odd time, any old time

A                        F#
Ophelia
A                         F#
Let your life be shallow
A                        F#
Ophelia
A                          F#
Let your life be hard


A                         Bm     F#
Ophelia
A                         Bm  F#
Let your life be shallow
A                         Bm  F#
Ophelia
A                      Bm    F#
Let your life be hard
Tap to rate this tab
# A B C D E F G H I J K L M N O P Q R S T U V W X Y Z