Guitaretab - guitar tabs
Song name
# A B C D E F G H I J K L M N O P Q R S T U V W X Y Z

Mercyful Fate - Satans Fall tab

SATANS FALL


INTRO
SOLO RHYTHM
GUITAR 2
|------------------------------------------------------------|
|------------------------------------------------------------|
|------------------------------------------------------------| 2x
|-----4-------4--------4----4-2------4-------4-------4----4--|
|---------------------------2-0---------------------------2--|
|-0-2---2-0-2---2--0-2---2-------0-2---2-0-2---2-0-2---2-----|


GUITAR 1
|------------------------------|
|------------------------------|
|------------------------------|
|-----4-------4-------4----4-2-|
|--------------------------2-0-|
|-0-2---2-0-2---2-0-2---2------|

SOLO
GUITAR 1
|-14----14-------14----14------14---------------14-------------------------------------|
|-17b19-17b19r17-17b19-17b19r17---17p14-17b19r17--17p14-----14-16p14-------------------|
|------------------------------------------------------16b18--------16p14--14-16b18r16-|
|------------------------------------------------------------------------16------------|
|--------------------------------------------------------------------------------------|
|--------------------------------------------------------------------------------------|


|----------------------------------------------------------|
|----------14--16--16b17r16-16b17r16-16b17r16--------------|
|-16p14----14--16--16b18r16-16b18r16-16b18r16-14-----14-16-|
|-------16--------------------------------------16-16------|
|----------------------------------------------------------|
|----------------------------------------------------------|


GUITAR 2
|----------------------------------------------------------------------------|
|----------------------------------------------------------------------------|
|-16b18-16-{16}--{16}-{16}-{16}-{16}-{16}-{16}-{16}-{16}-{16}--{16}-16p14----|
|------------------------------------------------------------------------16\-|
|----------------------------------------------------------------------------|
|----------------------------------------------------------------------------|


VERSE 1
|-----------------------------------------------------------|
|-----------------------------------------------------------|
|-----------------------------------------------------------| 2x
|-----4-------4--------4----4------4-------4-------4----4-2-|
|---------------------------2---------------------------2-0-|
|-0-2---2-0-2---2--0-2---2-----0-2---2-0-2---2-0-2---2------|
They're walking by the night the moon is frozen blue
Long black coats a shelter from the rain their load must get through
Now bats are leaving their trees they're joining the call
Seven Satanic Hell preachers heading for the hall
 
 
|------------------------|--------------------------------|
|------------------------|--------------------------------|
|------------------------|--------------------------------|
|-4-4-5------------------|-----4-------4-------4------4-2-|
|-2-2-3-5--5--5--5--5--5-|----------------------------2-0-|
|-------3--3--3--3--3--3-|-0-2---2-0-2---2-0-2---2-0------|
Bringing the blood of the newborn child, yeah!
 
 
|-------------------------|------|
|-------------------------|------|
|-------------------------|------|
|-4-4-5-------------------|------|
|-2-2-3--5--5--5--5--5--5-|-4----|
|--------3--3--3--3--3--3-|-2----|
Got to succeed if not its Satanís fall 
 
 
BRIDGE       
|-----------------------------|---------------------------|
|-----------------------------|---------------------------|
|-----------------------------|---------------------------|
|-----------------------------|---------------------------|
|-----------------------------|---------------------------|
|-----------------------------|-----------------------15\-|
|
|
|-----------------------------|---------------------------|
|-----------------------------|---------------------------|
|-----------------------------|---------------------------|
|-----------------------------|---------------------------|
|-2---3---------6-5-4-----3~~-|-2---3---------6-5-4---3~~-|
|-0-0-1-0-0-5-4-------3-2-----|-0-0-1-0-0-5-4-------2-----|
 
 
|-----------------------------|---------------------------|
|-----------------------------|---------------------------|
|-----------------------------|---------------------------|
|---------------5-4-3-----2~~-|---------------5-4-3---2~~-|
|-2---3-----4-3-------2-1-----|-2---3-----4-3-------1-----|
|-0-0-1-0-0-------------------|-0-0-1-0-0-----------------|\
|                                                           \ 2x
|                                                           /
|-----------------------------|---------------------------|/
|-----------------------------|---------------------------|
|-----------------------------|---------------------------|
|-----------------------------|---------------------------|
|-2---3---------6-5-4-----3~~-|-2---3---------6-5-4---3~~-|
|-0-0-1-0-0-5-4-------3-2-----|-0-0-1-0-0-5-4-------2-----|
     
 
PRE-VERSE
|-----------------------------|---------------------------|
|-----------------------------|---------------------------|
|-----------------------------|---------------------------|
|---------------5-4-3-----2~~-|---------------5-4-3---2~~-|
|-2---3-----4-3-------2-1-----|-2---3-----4-3-------1-----|
|-0-0-1-0-0-------------------|-0-0-1-0-0-----------------|
|                                                           
|                                                           
|-----------------------------|---------------------------|
|-----------------------------|---------------------------|
|-----------------------------|---------------------------|
|-----------------------------|---------------------------|
|-2---3---------6-5-4-----3~~-|-2---3---------6-5-4---3~~-|
|-0-0-1-0-0-5-4-------3-2-----|-0-0-1-0-0-5-4-------2-----|
Home, come home 

 
VERSE 2
|----------------------------------|
|----------------------------------|
|----------------------------------| 4x
|----------------------------------|
|---2-3---2-3---2-3-5-3-2---0-2----|
|-0-----0-----0-----------3-----3--|
Evil messengers
With blood stained wings 
Ohhhh
Come home 

|---------------------------------|----------------------------------|
|---------------------------------|----------------------------------|
|---------------------------------|----------------------------------| 2x
|---------------------------------|----------------------------------|
|---2-3---2-3---2-3---2-3---2-3-2-|---2-3---2-3---2-3-5-3-2---0-2----|
|-0-----0-----0-----0-----0-------|-0-----0-----0-----------3-----3--| 
Home, Come Home
 

|------|
|------|
|------|
|-2----|
|-2----|
|-0----|


BRIDGE 
GUITAR 2
|---------------------|---------------------|---------------------|---------------------|
|---------------------|---------------------|---------------------|---------------------|
|---------------------|---------------------|---------------------|---------------------|
|-----2-2-------2-2---|-----2-2-------2-2---|-----3-3-------3-3---|-----3-3-------3-3---|
|---2-----2---2-----2-|---2-----2---2-----2-|---3-----3---3-----3-|---3-----3---3-----3-|
|-0---------0---------|-0---------0---------|-1---------1---------|-1---------1---------|


|---------------------|---------------------|---------------------|---------------------|
|---------------------|---------------------|---------------------|---------------------|
|---------------------|---------------------|---------------------|---------------------|
|-2-------------------|---------------------|-3-------------------|---------------------|
|-2-------------------|---------------------|-3-------------------|---------------------|
|-0-------------------|---------------------|-1-------------------|---------------------|\
|                                                                                         \ 2x
|                                                                                         / 
|---------------------|---------------------|---------------------|---------------------|/
|---------------------|---------------------|---------------------|---------------------|
|---------------------|---------------------|---------------------|---------------------|
|-----2-2-------2-2---|-----2-2-------2-2---|-----3-3-------3-3---|-----3-3-------3-3---|
|---2-----2---2-----2-|---2-----2---2-----2-|---3-----3---3-----3-|---3-----3---3-----3-|
|-0---------0---------|-0---------0---------|-1---------1---------|-1---------1---------|


|---------------------|---------------------|---------------------|---------------------|
|---------------------|---------------------|---------------------|---------------------|
|---------------------|---------------------|---------------------|---------------------|
|-2-------------------|---------------------|-3-------------------|---------------------|
|-2-------------------|---------------------|-3-------------------|---------------------|
|-0-------------------|---------------------|-1-------------------|---------------------|\
|                                                                                         \ 2x
|                                                                                         / 
|---------------------|---------------------|---------------------|---------------------|/
|---------------------|---------------------|---------------------|---------------------|
|---------------------|---------------------|---------------------|---------------------|
|-----2-2-------2-2---|-----2-2-------2-2---|-----3-3-------3-3---|-----3-3-------3-3---|
|---2-----2---2-----2-|---2-----2---2-----2-|---3-----3---3-----3-|---3-----3---3-----3-|
|-0---------0---------|-0---------0---------|-1---------1---------|-1---------1---------|
   Ah ha ha ha ha                            Is it Satanís, fall                          
                                             No its Satanís, call!
 
 
BRIDGE
GUITAR 2
|-----------------------------------------------|
|-----------------------------------------------|
|-----------------------------------------------| 4x
|-----3-------3-------1-------3-------3---------|
|-----------------------------------------------|
|-0h1---1-0h1---1-0h2---2-0h1---1-0h1---1-0h2~~-| 
 
 
PRE-VERSE (guitar 1 w/wah)
|---------------------------------------------|
|---------------------------------------------|
|---------------------------------------------|
|-------------------------------------------3-|
|-5-----------------------------------0h1h2-1-|
|-3-------------------------------------------|    
|
|
|---------------------------------------------|
|---------------------------------------------|
|---------------------------------------------|
|-------------------------------------------3-|
|-------------------------------------0h1h2-1-|
|-3-3-3-3-3-3-3-3-3-3-3-3-3-3-3-3-3-3---------|    \
                                                    \ 3x
                                                    /
|-------------------------------------------------|/
|-------------------------------------------------|
|-------------------------------------------------|
|-------------------------------------------------|
|-5\----------------------------------------------|
|-3\----------------------------------------------|
|
|
|-------------------------------------------------|
|-------------------------------------------------|
|-------------------------------------------------|
|-------------------------------------------------|
|-------------------------------------1p0-------1-|
|-3-3-3-3-3-3-3-3-3-3-3-3-3-3-3-3-3-3-----3-1h3---|
 
 
VERSE 3
|---------------------------------------------|
|---------------------------------------------|
|---------------------------------------------|
|-------------------------------------------3-|
|-------------------------------------0h1h2-1-|
|-3-3-3-3-3-3-3-3-3-3-3-3-3-3-3-3-3-3---------|    \
                                                    \ 8x
                                                    /
|-------------------------------------------------|/
|-------------------------------------------------|
|-------------------------------------------------|
|-------------------------------------------------|
|-------------------------------------1p0-------1-|
|-3-3-3-3-3-3-3-3-3-3-3-3-3-3-3-3-3-3-----3-1h3---|
Craniums high on stakes 
Itís Satan's epigraph 
Something you can't erase
666!




Craniums high on stakes 
Itís Satan's epigraph 
Something you can't erase
666!
 
They call him the beast 


BRIDGE
GUITAR 2
|--------------------------------------------------|
|--------------------------------------------------|
|--------------------------------------------------|
|-9---------11-10---------------------9-8----------|
|-7----------9--8-----5-6-------------7-6-----9-10-|
|---0-0-0-0-------0-0-3-4-0-0-0-0-0-0-----0-0-7--8-|
                                                     
                                                     
|-----------------------------------------|         
|-----------------------------------------|
|-----------------------------------------| 
|-------------12-11-------4---5-4-7-6-7-8-|
|-------------10--9-2--2--2-0-3-2-5-4-5-6-|
|-0-0-0-0-0-0-------0--0------------------|
|
|
|-----------------------------------------|
|-----------------------------------------|
|-----------------------------------------|
|-------------------------4---5-4-7-6-7-8-|
|-------------------------2-0-3-2-5-4-5-6-|
|-----------------------------------------|


BOTH GUITARS
|--------------------------------------------------|
|--------------------------------------------------|
|--------------------------------------------------|
|-9---------11-10---------------------9-8----------|
|-7----------9--8-----5-6-------------7-6-----9-10-|
|---0-0-0-0-------0-0-3-4-0-0-0-0-0-0-----0-0-7--8-|\
                                                     \ 3x
                                                     /
|-----------------------------------------|         /
|-----------------------------------------|
|-----------------------------------------| 
|-------------12-11-------4---5-4-7-6-7-8-|
|-------------10--9-2--2--2-0-3-2-5-4-5-6-|
|-0-0-0-0-0-0-------0--0------------------|


 
|--------------------------------------------------|
|--------------------------------------------------|
|--------------------------------------------------|
|-9-------------10-------------------------------7-|
|-7--------------8-------------5-------------6---5-|
|---0-0-0-0-0-0----0-0-0-0-0-0-3-0-0-0-0-0-0-4-0---| \
|                                                     \
|                                                      4x
|WAH ON FOR "D" TO "E" SLIDE                          /
|---------------------------------------------------|/
|---------------------------------------------------|
|---------------------------------------------------|
|-9-------------10-------------------------------7/-|
|-7--------------8-------------5-------------6---5/-|
|---0-0-0-0-0-0----0-0-0-0-0-0-3-0-0-0-0-0-0-4-0----|  

 
PRE-SOLO
|-------------------------------------|---------------------------|
|-------------------------------------|---------------------------|
|-------------------------------------|-----5---4---12-----11-----| 2x
|-9--9---7---7---7-----8-7-6--9-11-12-|-----7---5---10------9---7-|
|-7--7---5---4---5-----9-8-7--7--9-10-|-------------------------5-|
|------0---0---0---0-0----------------|-0-0---0---0----0-0----0---|
        
 
SOLO (w/pre-solo 4x)
GUITAR 1
|-
|-
|-
|-
|-
|-
 
 
PRE-VERSE 
|-----------------------------------------------------------------|
|-----------------------------------------------------------------|
|-------------------------5-------7-------6---------------5-------|
|---------5-------4-------5-------7-------6-------5-------5-------|
|-2-------5-------4-------3-------5-------4-------3-------3-------|
|-0-0-0-0-3-0-0-0-2-0-0-0---0-0-0---0-0-0---0-0-0-3-0-0-0---0-0-0-|


VERSE 4
|-----------------------------------------------------------------|
|-----------------------------------------------------------------|
|-------------------------5-------7-------6---------------5-------| 2x
|---------5-------4-------5-------7-------6-------5-------5-------|
|-2-------5-------4-------3-------5-------4-------3-------3-------|
|-0-0-0-0-3-0-0-0-2-0-0-0---0-0-0---0-0-0---0-0-0-3-0-0-0---0-0-0-|
Use your demon eyes uncover the disguise 
Time is out Yeah! I don't need your god 


PRE-VERSE 
|-----------------------------------------------------------------|
|-----------------------------------------------------------------|
|-------------------------5-------7-------6---------------5-------|
|---------5-------4-------5-------7-------6-------5-------5-------|
|-2-------5-------4-------3-------5-------4-------3-------3-------|
|-0-0-0-0-3-0-0-0-2-0-0-0---0-0-0---0-0-0---0-0-0-3-0-0-0---0-0-0-|


VERSE 5 (ďohhhĒ is repeated in background)
|-----------------------------------------------------------------|
|-----------------------------------------------------------------|
|-------------------------5-------7-------6---------------5-------| 2x
|---------5-------4-------5-------7-------6-------5-------5-------|
|-2-------5-------4-------3-------5-------4-------3-------3-------|
|-0-0-0-0-3-0-0-0-2-0-0-0---0-0-0---0-0-0---0-0-0-3-0-0-0---0-0-0-|
Oh the law of Satan 
Pray and obey it forever 


|-----------------------------------------------------------------|
|-----------------------------------------------------------------|
|-------------------------5-------7-------6---------------5-------|
|---------5-------4-------5-------7-------6-------5-------5-------|
|-2-------5-------4-------3-------5-------4-------3-------3-------|
|-0-0-0-0-3-0-0-0-2-0-0-0---0-0-0---0-0-0---0-0-0-3-0-0-0---------|
Oh The law of Satan


DRUMS FOR A FEW BARS 

[ Tab from: http://www.guitaretab.com/m/mercyful-fate/11828.html ]
GUITAR 1
|-----------------|
|-----------------|
|-----------------|
|-x\\\\\\\\\\\\\\-|
|-x\\\\\\\\\\\\\\-|
|-----------------|
 
 
BRIDGE
|------------------------------------------------|
|------------------------------------------------|
|------------------------------------------------| 2x
|----------------------------------------------3-|
|-5-6--x-x--x-x--x-x-x-3--x--x-x-x-3--x--x-x-x-1-|
|-3-4--x-x--x-x--x-x-x-1--x--x-x-x-1--x--x-x-x---|
 
|------------------------------------------------|
|------------------------------------------------|
|------------------------------------------------|
|----------------------------------------------4-|
|-5-6--x-x--x-x--x-x-x-3--x--x-x-x-3--x--x-x-x-2-|
|-3-4--x-x--x-x--x-x-x-1--x--x-x-x-1--x--x-x-x---|
 
 
|--------------------------------------------------|
|--------------------------------------------------|
|--------------------------------------------------|
|----------------------------------------------3---|
|-5-6--x-x--x-x--x-x-x-3--x--x-x-x-3--x--x-x-x-1---|
|-3-4--x-x--x-x--x-x-x-1--x--x-x-x-1--x--x-x-x-----|
 

PRE-SOLO
|-------------------------------------|
|-------------------------------------|
|-------------------------------------| 2x
|-5/7-7-6-6---6---6---6---6---6---6---|
|-3/5-5-4-4-4-4-4-4-4-4-4-4-4-4-4-4-4-|
|-------------------------------------|
              

|---------------------------------------|
|---------------------------------------|
|---------------------------------------|
|-5/7-7-6-6---6---6---6---6---6---6---2-|
|-3/5-5-4-4-4-4-4-4-4-4-4-4-4-4-4-4-4-0-|
|---------------------------------------|

 
SOLO RHYTHM
|-------------------------------------|
|-------------------------------------|
|-------------------------------------| 3x
|-5/7-7-6-6---6---6---6---6---6---6---|
|-3/5-5-4-4-4-4-4-4-4-4-4-4-4-4-4-4-4-|
|-------------------------------------|
              

|---------------------------------------|
|---------------------------------------|
|---------------------------------------|
|-5/7-7-6-6---6---6---6---6---6---6---2-|
|-3/5-5-4-4-4-4-4-4-4-4-4-4-4-4-4-4-4-0-|
|---------------------------------------|


SOLO
|-
|-
|-
|-
|-
|-



SOLO RHYTHM
|---------|
|---------|
|---------| 15x
|---------|
|---------|
|-0-2-3-5-|


|-------------------|
|-------------------|
|-------------------|
|-------5----5----2-|
|-------3----3----0-|
|-0-2-3-------------|


|---------|
|---------|
|---------| 16x
|---------|
|---------|
|-0-2-3-5-|


|-------------------------------|
|-------------------------3-2-5-|
|-----------------3-2-5-3-------|
|---------3-2-5-3---------------|
|-3-2-5-3-----------------------|
|-------------------------------|
|
|
|-------------------------2-1-4-|
|-----------------3-2-5-3-------|
|---------2-1-4-2---------------|
|-2-1-4-2-----------------------|
|-------------------------------|
|-------------------------------|


|---------|
|---------|
|---------| 8x
|---------|
|---------|
|-0-2-3-5-|


|-------------------------------|
|-------------------------3-2-5-|
|-----------------3-2-5-3-------|
|---------3-2-5-3---------------|
|-3-2-5-3-----------------------|
|-------------------------------|
|
|
|-------------------------2-1-4-|
|-----------------3-2-5-3-------|
|---------2-1-4-2---------------|
|-2-1-4-2-----------------------|
|-------------------------------|
|-------------------------------|


|-----------------------------------|
|-----------------------------------|
|-----------------------------------| 2x
|-2---------------------------------|
|-0---------------------------------|
|---0-2-3-5-0-2-3-5-0-2-3-5-0-2-3-5-|
 

|-------------------------------------|
|-------------------------------------|
|-------------------------------------|
|-2-----------------2-----------------|
|-0-----------------0-----------------|
|---0-2-3-5-0-2-3-5---0-2-3-5-0-2-3-5-|

 
|---------------------|
|---------------------|
|---------------------| 8x
|-2---------5---------|
|-0---------3---------|
|----0-2-3-----0-2-3--|
 

|--------|
|--------|
|--------|
|-2-2----|
|-0-0----|
|--------|
  
 
INTERLUDE 
CLEAN
BOTH GUITARS
|---------------------------------------------------------------------------|
|---------5-----------7-----------4-----------4-------------------------7---|
|-------5---5-------7---7-------4---4-------4---4-----------0---------7---7-|
|-----5-------5---7-------7---4-------4---4---------------0---0-----7-------|
|-2-3-----------5-----------2-----------2---------2-0---2-------2-5---------|
|-----------------------------------------------------3---------------------|
           Ahhhh            ahhhh       ahhhh         innocent lovers
 
|-------------------------------------------------------------------|
|---------2-----------2---------------5-----------7-----------9-----|
|-------2---2-------2---2-----------5---5-------7---7-------9---9---|
|-----2-------2---2-------2-------5-------5---7-------7---9-------9-|
|-3-0-----------0-----------0-2-3-----------5-----------7-----------|
|-------------------------------------------------------------------|
          It's a lie             ahhhhh        ahhhhh   ahhhhhh
 

BOTH GUITARS (one clean, one distorted)
|-------------|
|-------------|
|-9-7---------|
|-----9-8-7-5-|
|-------------|
|-------------|

 
SOLO RHYTHM
GUITAR 2
|---------------------------------------------------------------------------|
|-------5-----------4-------------------------------------5-----------4-----|
|-----5---5-------4---4-----------0-----------0---------5---5-------4---4---|
|---5-------5---4---------------0---0-------2---2-----5-------5---4-------4-|
|-3-----------2---------2-0---2-------2---2-------2-3-----------2-----------|
|---------------------------3-----------0-----------------------------------|
 
 
|-----------------------------------------------------------------------------|
|-------7-----------7-----------5-----------4---------------------------------|
|-----7---7-------7---7-------5---5-------4---4-------------0-----------0-----|
|---7-------7---7-------7---5-------5---4-------4---------0---0-------2---2---|
|-5-----------5-----------3-----------2-----------2-0---2-------2---2-------2-|
|-----------------------------------------------------3-----------0-----------|
 
|----------------------------|
|-------5-----------4--------|
|-----5---5-------4---4------|
|---5-------5---4------------|
|-3-----------2--------------|
|------------------------3-0-|
 

SOLO
|-
|-
|-
|-
|-
|- 
 

BRIDGE
|---------------------|---------------------|---------------------|-----------|
|---------------------|---------------------|---------------------|-----------|
|---------------------|---------------------|---------------------|-----------| 2x
|-7---------6---------|-7---------6---------|-7---------6---------|-------5-4-|
|-5-4-4-4-4-4-4-4-4-4-|-5-4-4-4-4-4-4-4-4-4-|-5-4-4-4-4-4-4-4-4-4-|-------3-2-|
|---------------------|---------------------|---------------------|-3-2-0-----|


PRE-VERSE
|-------------------|-------------------|-------------------|-------------|
|-------------------|-------------------|-------------------|-------------|
|-------------------|-------------------|-------------------|-------------|
|-7-5-5-5-5-5-5-5-5-|-7-5-5-5-5-5-5-5-5-|-7-5-5-5-5-5-5-5-5-|-5-9-7-5-----|
|-------------------|-------------------|-------------------|---------9-5-|
|-------------------|-------------------|-------------------|-------------|
|
|
|-------------------|-------------------|-------------------|-------------|
|-------------------|-------------------|-------------------|-----7-8-7---|
|-9-7-7-7-7-7-7-7-7-|-9-7-7-7-7-7-7-7-7-|-9-7-7-7-7-7-7-7-7-|-7-9-------9-|
|-------------------|-------------------|-------------------|-------------|
|-------------------|-------------------|-------------------|-------------|
|-------------------|-------------------|-------------------|-------------|
 
 
|---------------------|
|---------------------|
|---------------------| 
|-7---------6---------|
|-5-4-4-4-4-4-4-4-4-4-|
|---------------------|\ 
|                       \ 2x
|                       /
|---------------------|/
|---------------------|
|-7-6-6-6-6-6-6-6-6-6-|
|---------------------|
|---------------------|
|---------------------|
 

|-------------------|-------------------|-------------------|-------------|
|-------------------|-------------------|-------------------|-------------|
|-------------------|-------------------|-------------------|-------------|
|-7-5-5-5-5-5-5-5-5-|-7-5-5-5-5-5-5-5-5-|-7-5-5-5-5-5-5-5-5-|-5-9-7-5-----|
|-------------------|-------------------|-------------------|---------9-5-|
|-------------------|-------------------|-------------------|-------------|
|
|
|-------------------|-------------------|-------------------|-------------|
|-------------------|-------------------|-------------------|-----7-8-7---|
|-9-7-7-7-7-7-7-7-7-|-9-7-7-7-7-7-7-7-7-|-9-7-7-7-7-7-7-7-7-|-7-9-------9-|
|-------------------|-------------------|-------------------|-------------|
|-------------------|-------------------|-------------------|-------------|
|-------------------|-------------------|-------------------|-------------|
 Ahhhhhh             Ahhhhhhh            Ahhhhh                Ahhhhhh
 
|---------------------|
|---------------------|
|---------------------| 
|-7---------6---------|
|-5-4-4-4-4-4-4-4-4-4-|
|---------------------|\ 
|                       \ 2x
|                       /
|---------------------|/
|---------------------|
|-7-6-6-6-6-6-6-6-6-6-|
|---------------------|
|---------------------|
|---------------------|
Ahhhhhhhh


VERSE 6 
|-------------------|-------------------|-------------------|-------------|
|-------------------|-------------------|-------------------|-------------|
|-------------------|-------------------|-------------------|-------------|
|-7-5-5-5-5-5-5-5-5-|-7-5-5-5-5-5-5-5-5-|-7-5-5-5-5-5-5-5-5-|-5-9-7-5-----|
|-------------------|-------------------|-------------------|---------9-5-|
|-------------------|-------------------|-------------------|-------------|
|
|
|-------------------|-------------------|-------------------|-------------|
|-------------------|-------------------|-------------------|-----7-8-7---|
|-9-7-7-7-7-7-7-7-7-|-9-7-7-7-7-7-7-7-7-|-9-7-7-7-7-7-7-7-7-|-7-9-------9-|
|-------------------|-------------------|-------------------|-------------|
|-------------------|-------------------|-------------------|-------------|
|-------------------|-------------------|-------------------|-------------|\
                                                                            \ 2x
                                                                            /
|---------------------|                                                    /
|---------------------|
|---------------------| 
|-7---------6---------|
|-5-4-4-4-4-4-4-4-4-4-|
|---------------------|\ 
|                       \ 2x
|                       /
|---------------------|/
|---------------------|
|-7-6-6-6-6-6-6-6-6-6-|
|---------------------|
|---------------------|
|---------------------|
Iron fists wont do no good against the evil eyes
Of seven holy hell preachers 
Dont you even try
 
Now they cross the river styx and see the catsle rise
Ohhhh ohhhh 
Ohhh so high


BRIDGE
|---------------------------------|-------------------------------------------------|
|---------------------------------|-------------------------------------------------|
|---------------------------------|-------------------------------------------------|
|-7-7-7-7-7-7-7-7-7-7-7-9-7-6-----|-9/10-10-10-10-10-10-10-10-10-10-10-9-10-12-10-9-|
|-----------------------------9-7-|-------------------------------------------------|
|---------------------------------|-------------------------------------------------|
|
|
|---------------------------------|------------------------------------|
|---------------------------------|------------------------------------|
|---------------------------------|-7/9-9-9-9-9-9-9-9-9-9-9-9-9-10-9-7-|
|-7-7-7-7-7-7-7-7-7-7-7-9-7-6-7-6-|------------------------------------|
|---------------------------------|------------------------------------|
|---------------------------------|------------------------------------|
 
 
|-------------------------------------|-------------------------------------------------|
|-------------------------------------|-------------------------------------------------|
|-------------------------------------|-------------------------------------------------|
|-7/9-9-9-9-9-9-9-9-9-9-9-12-10-9-7-9-|-9/10-10-10-10-10-10-10-10-10-10-10-9-10-12-10-9-|
|-------------------------------------|-------------------------------------------------|
|-------------------------------------|-------------------------------------------------|
|
| 
|------------------------------------|------------------------------------|
|------------------------------------|------------------------------------|
|-7/9-9-9-9-9-9-9-9-9-9-9-7-9-10-9-7-|-7/9-9-9-9-9-9-9-9-9-9-9-9-9-10-9-7-|
|------------------------------------|------------------------------------|
|------------------------------------|------------------------------------|
|------------------------------------|------------------------------------|
 
 
|------------------------------------|-------------------------|
|------------------------------------|-------------------------|
|------------------------------------|-------------------------|
|-7/9-9-9-9-9-9-9-9-9-9-9-10-9-7-9-7-|-5-7-5-4-5-4-2-4-2-0-2-0-|
|------------------------------------|-------------------------|
|------------------------------------|-------------------------|
|
| 
|------------------------------------|----------------------------|
|------------------------------------|----------------------------|
|-7/9-9-9-9-9-9-9-9-9-9-9-10-9-7-9-7-|-5-7-5--4-5-4--2-4-2--0-2-0-|
|------------------------------------|----------------------------|
|------------------------------------|----------------------------|
|------------------------------------|----------------------------|
  

|-------------------|-------------------|-------------------|-------------|
|-------------------|-------------------|-------------------|-------------|
|-------------------|-------------------|-------------------|-------------|
|-7-5-5-5-5-5-5-5-5-|-7-5-5-5-5-5-5-5-5-|-7-5-5-5-5-5-5-5-5-|-5-9-7-5-----|
|-------------------|-------------------|-------------------|---------9-5-|
|-------------------|-------------------|-------------------|-------------|
|
|
|-------------------|-------------------|-------------------|-------------|
|-------------------|-------------------|-------------------|-----7-8-7---|
|-9-7-7-7-7-7-7-7-7-|-9-7-7-7-7-7-7-7-7-|-9-7-7-7-7-7-7-7-7-|-7-9-------9-|
|-------------------|-------------------|-------------------|-------------|
|-------------------|-------------------|-------------------|-------------|
|-------------------|-------------------|-------------------|-------------|
 
 
|---------------------|
|---------------------|
|---------------------| 
|-7---------6---------|
|-5-4-4-4-4-4-4-4-4-4-|
|---------------------|\ 
|                       \ 2x
|                       /
|---------------------|/
|---------------------|
|-7-6-6-6-6-6-6-6-6-6-|
|---------------------|
|---------------------|
|---------------------|
 

|-------------------|-------------------|-------------------|-------------|
|-------------------|-------------------|-------------------|-------------|
|-------------------|-------------------|-------------------|-------------|
|-7-5-5-5-5-5-5-5-5-|-7-5-5-5-5-5-5-5-5-|-7-5-5-5-5-5-5-5-5-|-5-9-7-5-----|
|-------------------|-------------------|-------------------|---------9-5-|
|-------------------|-------------------|-------------------|-------------|
|
|
|-------------------|-------------------|-------------------|-------------|
|-------------------|-------------------|-------------------|-----7-8-7---|
|-9-7-7-7-7-7-7-7-7-|-9-7-7-7-7-7-7-7-7-|-9-7-7-7-7-7-7-7-7-|-7-9-------9-|
|-------------------|-------------------|-------------------|-------------|
|-------------------|-------------------|-------------------|-------------|
|-------------------|-------------------|-------------------|-------------|
 Ahhhhhh             Ahhhhhhh            Ahhhhh                Ahhhhhh
 
|---------------------|
|---------------------|
|---------------------| 
|-7---------6---------|
|-5-4-4-4-4-4-4-4-4-4-|
|---------------------|\ 
|                       \ 2x
|                       /
|---------------------|/
|---------------------|
|-7-6-6-6-6-6-6-6-6-6-|
|---------------------|
|---------------------|
|---------------------|
Ahhhhhhhh


VERSE 7
Waiting on the other shore for Charon to arrive
A shape with horns and glowing eyes 
Satans still alive

He recieves the sacrifice with evil laughs and pride 


|---------------------|---------------------|---------------------|-----------|
|---------------------|---------------------|---------------------|-----------|
|---------------------|---------------------|---------------------|-----------| 4x
|-7---------6---------|-7---------6---------|-7---------6---------|-------5-4-|
|-5-4-4-4-4-4-4-4-4-4-|-5-4-4-4-4-4-4-4-4-4-|-5-4-4-4-4-4-4-4-4-4-|-------3-2-|
|---------------------|---------------------|---------------------|-3-2-0-----|
Ohhhh ohhhh Ohhh
You better escape
You've got to escape!


OUTRO
SOLO RHYTHM
GUITAR 2
|------------------------------------------------------------|
|------------------------------------------------------------|
|------------------------------------------------------------| 2x
|-----4-------4--------4----4-2------4-------4-------4----4--|
|---------------------------2-0---------------------------2--|
|-0-2---2-0-2---2--0-2---2-------0-2---2-0-2---2-0-2---2-----|


GUITAR 1
|------------------------------|
|------------------------------|
|------------------------------|
|-----4-------4-------4----4-2-|
|--------------------------2-0-|
|-0-2---2-0-2---2-0-2---2------|

SOLO
GUITAR 1
|-14----14-------14----14------14---------------14-------------------------------------|
|-17b19-17b19r17-17b19-17b19r17---17p14-17b19r17--17p14-----14-16p14-------------------|
|------------------------------------------------------16b18--------16p14--14-16b18r16-|
|------------------------------------------------------------------------16------------|
|--------------------------------------------------------------------------------------|
|--------------------------------------------------------------------------------------|


|----------------------------------------------------------|
|----------14--16--16b17r16-16b17r16-16b17r16--------------|
|-16p14----14--16--16b18r16-16b18r16-16b18r16-14-----14-16-|
|-------16--------------------------------------16-16------|
|----------------------------------------------------------|
|----------------------------------------------------------|


GUITAR 2
|---------------------------------------------------------------------------|
|---------------------------------------------------------------------------|
|-16b18-16-{16}-{16}-{16}-{16}-{16}-{16}-{16}-{16}-{16}-{16}--{16}-16p14----|
|-----------------------------------------------------------------------16\-|
|---------------------------------------------------------------------------|
|---------------------------------------------------------------------------|


BOTH GUITARS (play a fill during the C# chord)
|---------------|
|---------------|
|---------------|
|-6------11-11\-|
|-4-------9--9\-|
|---------------|


Related for Satans Fall tab