Guitaretab - guitar tabs
Song name
# A B C D E F G H I J K L M N O P Q R S T U V W X Y Z
Home / M / Mest / Yesterday tab

Mest - Yesterday tab

-------------------------------------------------------------------------------
Yesterday - Mest
-------------------------------------------------------------------------------

Another quality song and quality tab!!! Hope you like and lease rate,
Iím gonna try and tab some stuff off there new album!!! 
  
Verse 1
e|-------------------------------------------------------|
B|-------------------------------------------------------|
G|-55555555----------------------------------------------|
D|-55555555-55555555-77777777-3~~-------------55---------|
A|-33333333-55555555-77777777-3~~-------------55---------|
E|----------33333333-55555555-1~~-(pickscrape)33---------|
   ******** ******** ******** *
Verse 2
e|-----------------------------------XXX----------|
B|-----------------------------------XXX----------|
G|-55555555--------------------------XXX----------|
D|-55555555-55555555-77777777-33333--XXX----------|
A|-33333333-55555555-77777777-33333--XXX----------|
E|----------33333333-55555555-11111--XXX----------|
[ Tab from: http://www.guitaretab.com/m/mest/121092.html ]
Chorus (guitar 1)
e|--------------------------------------------|
B|--------------------------------------------|
G|-55555555-----------------------------------|
D|-55555555-55555555-7777-5555-3333-----------|
A|-33333333-55555555-7777-5555-3333-----------|
E|----------33333333-5555-3333-1111-----------|
Chorus (guitar 2) He plays over the above chords!
e|---------------------------------------------------------------------|
B|---------------------------------------------------------------------|
G|-5555-7-9-7777-9999-7777-5555---/-10-9--7-\-only played from second--|
D|-xxxx-x-x-xxxx-xxxx-xxxx-xxxx---|-x--x--x-|-chorus listen and youíll-| 
A|-3333-5-7-5555-7777-5555-3333---\-8--7--5-/- here it!!---------------|
E|---------------------------------------------------------------------|
Chorus (guitar 1 contÖ)
e|----------------------------------------------------|
B|----------------------------------------------------|
G|-55555555-------------------------------------------|
D|-55555555-55555555-7777-5555-3333-3333-5555---------|
A|-33333333-55555555-7777-5555-3333-3333-5555---------|
E|----------33333333-5555-3333-1111-1111-3333---------|

Bridge
e|---------------------------|
B|---------------------------|
G|---------------------------|
D|-7--5-xx3xx3xx3------------|
A|-7--5-xx3xx3xx3------------|
E|-5--3óxx1xx1xx1------------|

Bridge 2
e|----------------------------------|
B|----------------------------------|
G|----------------------------------|
D|-77777-55555-3333333333-----------|
A|-77777-55555-3333333333-----------|
E|-55555-33333-1111111111-----------|
   ***** ***** **********

End chord
e|-0~~~-----------|
B|-0~~~-----------|
G|-2~~~-----------|
D|-3~~~-----------|
A|-3~~~-----------|
E|-1~~~-----------|

SONG LAYOUT

Verse 1
Verse 2
Chorus (plus the cont part)
Verse 1
Verse 2
Chorus (plus the cont part)
Bridge 1
Bridge 2 (many times halp muted half open)
Chorus
End chord!

Thatís it nice and easy Iíve tried to include ebverything there 
should all be there so enjoyn and donít forget to rate!

=============================================================================
Related for Yesterday tab