Guitaretab - guitar tabs
Song name
# A B C D E F G H I J K L M N O P Q R S T U V W X Y Z

Mest - I Melt With You tab

Song-I Melt With You
Artist-Mest
Album-Not Another Teen Movie
Transcribed By-Oldreich87
Tuning-Standard

 Intro

 Guitar 1 (Starting bit here only played once)

e|-------| 
B|-------| 
G|-1-1-1-| 
D|-2-2-2-|
A|-2-2-2-|
E|-------|


e|------------------------------------------------|
B|-----------------------2-2-2-2-2-2-2-2-2-2------|
G|-1-1-1-1-1-1-1-1-1-1---2-2-2-2-2-2-2-2-2-2--x2--|
D|-2-2-2-2-2-2-2-2-2-2---2-2-2-2-2-2-2-2-2-2------|
A|-2-2-2-2-2-2-2-2-2-2----------------------------|
E|------------------------------------------------|

 Guitar 2

e|----------------------------------|
B|----------------------------------|
G|----------------------------------|
D|-----6----------7---6------x2-----|
A|-------7--------------7-----------|
E|---7----------5-------------------|

 First verse

 Guitar 1 plays an E and an A throughout the verse.

 Guitar 2

e|--------------------------------------|
B|--------------------------------------|
G|--------------------------------------|
D|---6--------6----7--------7-----------|
A|-----7-0-7----7----7----7---7----x4---|
E|---------------------9----------------|

 Chorus

 Guitar 1
[ Tab from: http://www.guitaretab.com/m/mest/34005.html ]
e|-------------------------------------------------|
B|-------------------------------------------------|
G|--9-9-9-9-9-9-9-9-9-9----------------------------|
D|--9-9-9-9-9-9-9-9-9-9---7-7-7-7-7-7-7-7-7-7------|
A|--7-7-7-7-7-7-7-7-7-7---7-7-7-7-7-7-7-7-7-7--x4--|
E|------------------------5-5-5-5-5-5-5-5-5-5------|

 Guitar 2 (Played after "I'll stop the world and melt with you"
           and after "There's nothing you and I won't do")


e|--------------------------|
B|--------------------------|
G|--------------------------|
D|-----7---6----------------|
A|-----------7-6-7-----x2---|
E|--5-----------------------|

 2nd verse

 Guitar 1

e|----------------------------------|
B|----------------------------------|
G|-xx9xx9xx9xx9---------------------|
D|-xx9xx9xx9xx9----xx7xx7xx7xx7--x4-|
A|-xx7xx7xx7xx7----xx7xx7xx7xx7-----|
E|-----------------xx5xx5xx5xx5-----|

 Guitar 2

e|---------------------------------------|
B|---------------------------------------|
G|---------------------------------------|
D|---6--------6----7--------7------------|
A|-----7-0-7----7----7----7---7----x4----|
E|---------------------9-----------------|

 Chorus

 Bridge

e|---------------------|
B|---------------------|
G|---------------------|
D|---------------------|
A|--4~-7~-9~-12~---x2--|
E|---------------------|

 Ending Order

Repeat Intro
Repeat chorus with intro riffs
Humming solo
Repeat chorus with intro riffs
Repeat intro




 
Related for I Melt With You tab
Advertisement will be closed in 10 seconds