Song name
# A B C D E F G H I J K L M N O P Q R S T U V W X Y Z

Metallica - Wherever I May Roam Live tab

This is the live.If you go on youtube it wherever i may roam S&M.

Enjoy!!!

This is a sitar i think, not guitar you can use a phaser to make it sound like it.


e|----------------------------------------------|
B|----5-5h6-5------8-8h10-6-----5-5h6-5---------|
G|----------------------------------------------| X3!!!
D|----------------------------------------------|
A|----------------------------------------------|
E|-0------------0------------0------------------|



e|----------------------------------------------|
B|----------------------------------------------|
G|----------------------------------------------|
D|-X\------------------5-5/7--------------------|
A|-X\-----7-7h8-7~~~---------8--7--7-7h8-7~~----|X2!!!!!!!
E|-X\--0------------------------0---------------|


  it gets faster here!!

e|----------------------------------------------|
B|----------------------------------------------|
G|----------------------------------------------| X2!!! 
D|----------------------------5-5/7-------------|
A|--7-8-9-10------7-7h8-7-----------8-7--7-7h8-7|
E|--5-6-7-8----0-----------0----------0---------|


e|----------------------------------------------|
B|----------------------------------------------|
G|----------------------------------------------|
D|----------------------------5-5/7-------------|
A|-7-8-9-10-x-x-x-x--7h8-7----------8-7--7-7h8--|
E|-5-6-7-8--x-x-x-x---------0---------0---------|


e|----------------------------------------------|
B|----------------------------------------------|
G|-------------------0----------------0---------|
D|-------------------2------3------2---------3--|
A|-7-8-9-10-x-x-x-x--2----3------2---------3----|
E|-5-6-7-8--x-x-x-x--0--1------0---------1------|



Thats all i know live so enjoy play along on youtube or something remember
wherever i may roam live S&M
Tap to rate this tab
 
# A B C D E F G H I J K L M N O P Q R S T U V W X Y Z