Song name
# A B C D E F G H I J K L M N O P Q R S T U V W X Y Z

Metallica - Through The Never tab

-------------------------------------------------------------------------------
			     Through the Never - Metallica
-------------------------------------------------------------------------------
Tabbed by:
Email:

Tuning:

e|--------------------------------------------------------------------------|
B|----19-----------19-------------19------------19-----------19--22--19h22--|
G|--------21p19-21----21p19-19h21----21p19-21-------21p19-21----------------|
D|--------------------------------------------------------------------------|
A|--------------------------------------------------------------------------|
E|--------------------------------------------------------------------------|

e|--------------------------------------------------------------------------|
B|--19----22p19----19-------------------------------------------------------|
G|-----21-------21-----21----21-19------19-21--21fb--19---------------------|
D|----------------------------------21------------------21~~~~~~-(21)\------|
A|--------------------------------------------------------------------------|
E|--------------------------------------------------------------------------|

e|--------------------------------------------------------------------------|
B|---------------------------------------------------------------------10fb-|
G|-----7--9--pb9r--pb9r--pb9r---7--------------7--9--9fbr-p7----7--9--------|
D|-/9-----------------------------9~~~~~\--/9-----------------9-------------|
A|--------------------------------------------------------------------------|
E|--------------------------------------------------------------------------|

e|--------------------------------------------------------------------------|
B|--------------------7------------------7----------------------------------|
G|--9\----------------7------------------7---------------9----7--9----------|
D|-------/9--7-9-7-9--------9-7---7-9-7-------9-7---7-9----9--------9p7-----|
A|------------------------------9-----------------9---------------------9---|
E|--------------------------------------------------------------------------|

e|--------------------------------------------------------------------------|
B|--------------------------------------------------------------------------|
G|--------------------------------------------------------------------------|
D|-7------------------------------------------------------------------------|
A|-----9-7-5~~~~-7-8--7-5-7hb[8]-p5--7hb[8]-p5--7hb[8]-p5--7fb[9][10]-------|
E|--------------------------------------------------------------------------|

e|--------------------------------------------------------------------------|
B|------------------17-20p17--17h20p17--17h20p17--17h20p17--17h20p17--------|
G|--------------------------19--------19--------19--------19--------19------|
D|--------------------------------------------------------------------------|
A|-5------------------------------------------------------------------------|
E|---7~~~~--7~~~~~----------------------------------------------------------|

e|--------------------------------------------------------------------------|
B|--17h20p17--17h20p17--17h20p17--17h20p17--20fb--(20)fb-(20)fb---20p17-----|
G|----------19--------19--------19--------------------------------------19--|
D|--------------------------------------------------------------------------|
A|--------------------------------------------------------------------------|
E|--------------------------------------------------------------------------|

e|------------20fb-----------------------------------------------------------|
B|-17--20--17----------------------------------------------------------------|
G|---------------------------------------------------------------------------|
D|---------------------------------------------------------------------------|
A|---------------------------------------------------------------------------|
E|-------------------15\-----------------------------------------------------|

| b  bend
| /  slide up
| \  slide down
| h  hammer-on
| p  pull-off
| ~  vibrato
| +  harmonic
| x  Mute note
===============================================================================
Tap to rate this tab
# A B C D E F G H I J K L M N O P Q R S T U V W X Y Z