Song name
# A B C D E F G H I J K L M N O P Q R S T U V W X Y Z

Metallica - The Unforgiven Iii tab

Artist: Metallica
Album: Death Magnetic
Song: The Unforgiven III Solo
Tabbed by: Zodorac

Tuning: Regular (EADGBE) 

Solo: (with wah)

e|------------------------------12--12---12-----------12-----------12---------|
B|-15---15b(16)r------12----------12—15b---15p12-15b-----15p12-15b---15p12-15b|
G|-14---14b(15)r--14--12----14b-----------------------------------------------|
D|-----------------------14---------------------------------------------------|
A|----------------------------------------------------------------------------|
E|----------------------------------------------------------------------------|

e|-12----------12----------12----------15p12—-15p12---15p12-15p12---15p12-----|
B|---15p12-15b---15p12-15b---15b-12---------12-----12------------12-------12--|
G|----------------------------------------------------------------------------|
D|----------------------------------------------------------------------------|
A|----------------------------------------------------------------------------|
E|----------------------------------------------------------------------------|

e|-15p12-15p12----15p12----15p12-15p12---15-15-12-15-12-----------------------|
B|-------------12-------12------------12--------------------------------------|
G|----------------------------------------------------------------------------|
D|----------------------------------------------------------------------------|
A|----------------------------------------------------------------------------|
E|----------------------------------------------------------------------------|

e|-12h15p12-12-12-------------------------------------------------------------|
B|----------------15----12-15-12----------------------------------------------|
G|-------------------14b---------14-12----12~~~~~~~~~~~~~~~~~-----------------|
D|-------------------------------------14-------------------------------------|
A|----------------------------------------------------------------------------|
E|----------------------------------------------------------------------------|

e|-----------------------15---------------------------------------------------|
B|---12h13p12---12-12-15----12----------------12h13p12------------------------|
G|-12--------14----------------14-12—14p12------------14-12-----12-14p12------|
D|----------------------------------------14~~--------------14-----------14~~~|
A|----------------------------------------------------------------------------|
E|----------------------------------------------------------------------------|

e|----------------------------------------------------------------------------|
B|-12h13p12-------------------------------------------------------------------|
G|----------14-12-14p12-----12-14p12------------------------------------------|
D|----------------------14-----------14-12-14~~~~-----------------------------|
A|----------------------------------------------------------------------------|
E|----------------------------------------------------------------------------|


e|-12-------------------------------------------------------------------------|
B|---15-13-12-12----12h13p12----12--------------------------------------------|
G|---------------14----------14----14p12----12-14p12--------------------------|
D|---------------------------------------14----------14-12--------------------|
A|----------------------------------------------------------------------------|
E|----------------------------------------------------------------------------|




e|----------------------------------------------------------------------------|
B|-12-14p12---12--12---------12---12-12-12—-15b---15b—-15b---12-14br-12-------|
G|-12-14p12---12--12-14p12---12---12-12-12—-14br—-14br-14br--12-14br-12--12-14|
D|---------14-------------14-------------------------------------------14-----|
A|----------------------------------------------------------------------------|
E|----------------------------------------------------------------------------|

e|----------------------------------------------------------------------------|
B|----12-12----12-12----12----12-----------12------12-------------------------|
G|-14b------14b------14b—-14b----12-15b-12----14b--12-------------------------|
D|----------------------------------------------------------------------------|
A|----------------------------------------------------------------------------|
E|----------------------------------------------------------------------------|

e|----------------------------------------------------------------------------|
B|-------12-----12-12--------------12--12------12--12--12---------------------|
G|-14b-12---15b-12-12-14b--12-14b--12--12-15b--12--12-------------------------|
D|----------------------------------------------------------------------------|
A|----------------------------------------------------------------------------|
E|----------------------------------------------------------------------------|

With Wah as a filter
e|----------------------------------------------------------------------------|
B|-----------------------------------------------15--15--15--15-----------15b-|
G|-------------12-14/16----------------12-14/16--14b-14b-14b-14b-14-14p12-----|
D|-14~~-12-14-----------14~~~-14-12-14----------------------------------------|
A|----------------------------------------------------------------------------|
E|----------------------------------------------------------------------------|

e|----------------------------------------------------------------------------|
B|-15-13-12-13-12h13----12---------------------------------15-15--12-15p12-15b|
G|-------------------14----14-12-14p12----------------12-14---14b-------------|
D|-------------------------------------14p12-14~~12-14------------------------|
A|----------------------------------------------------------------------------|
E|----------------------------------------------------------------------------|

e|-12-12-15p12-12-15p14p12-12-15p14p12-15p14p12-12-15p14p12-15-15-15----------|
B|----------------------------------------------------------------------------|
G|----------------------------------------------------------------------------|
D|----------------------------------------------------------------------------|
A|----------------------------------------------------------------------------|
E|----------------------------------------------------------------------------|


e|-19p17p15--19p17p15-15--19p17p15-19-17-19p17p15--19p17p15-------------------|
B|----------------------------------------------------------------------------|
G|----------------------------------------------------------------------------|
D|----------------------------------------------------------------------------|
A|----------------------------------------------------------------------------|
E|----------------------------------------------------------------------------|

e|-19p17p15---------19p17p15----------17p15p14----15p14p12--------------------|
B|---------19p17p15---------19p17p15----------17-----------15-----------------|
G|----------------------------------------------------------------------------|
D|----------------------------------------------------------------------------|
A|----------------------------------------------------------------------------|
E|----------------------------------------------------------------------------|






e|-19p17p15----17p15p14----15p14p12----15p14p12-------------------------------|
B|---------19----------17-----------15----------15----15b-15b-15b--15b~~~~----|
G|----------------------------------------------------------------------------|
D|----------------------------------------------------------------------------|
A|----------------------------------------------------------------------------|
E|----------------------------------------------------------------------------|

e|-12------------12---------------------------12------------------------------|
B|----15p12-15b-----15p12-------12-15p12-15b-----15p12------------------------|
G|------------------------14b--------------------------14b--------------------|
D|----------------------------------------------------------------------------|
A|----------------------------------------------------------------------------|
E|----------------------------------------------------------------------------|

e|----------------------------------------------------------------------------|
B|-12-15p12----12-15p12-13p12-------------------------------------------------|
G|----------15----------------14-12----12h14-12~~~~-12----11----10----9b------|
D|----------------------------------14-----------------13----12---11\---------|
A|----------------------------------------------------------------------------|
E|----------------------------------------------------------------------------|

e|----------------------------------------------------------------------------|
B|----------------------------------------------------------------------------|
G|-9--7-----------------------------------------------------------------------|
D|-----9--8--7--5--4\-2~~~~~~~~~~~~~~~~~~~~~~~~~~~~~~~~~~~~~~~~~~~~~~~~-------|
A|----------------------------------------------------------------------------|
E|----------------------------------------------------------------------------|




LEGEND AND NOTES:
h: Hammer-on            p: Pull-off         b: Bend string up
r: Unbend string        /: Slide up         \: Slide down
: Harmonics       x: Muted string     v: Vibrato
t: Tap

Tap to rate this tab
# A B C D E F G H I J K L M N O P Q R S T U V W X Y Z