Song name
# A B C D E F G H I J K L M N O P Q R S T U V W X Y Z

Metallica - Unforgiven tab

                           The Unforgiven
                             METALLICA
                           tab by VLAD GAYKO

 
1) Amsus2             Am         Amsus2
e-----------------------------------------------------
B--0-0-----0-----0-----1-----0-----0-----0-----1------
G------2-----2-----2-----2-----2-----2-----2-----2----  Repeat
D--------2-----2-----2-----2-----2-----2-----2-----2--
A--0--------------------------------------------------
E-----------------------------------------------------
accoustic intro-james


2)kirk
e-------------------------------------------------------
B-------------------------------------------------------
G--2--4--4h5--5-2--------2--4--4h5--5-4-2----------------
D-------------------------------------------------------
A-------------------------------------------------------
E-------------------------------------------------------


 Kirk
e----------------------------------------------------------------
B---------------------------------------5-5-5-5-3----------------
G--2-4-5--5--5-5-4---4----2-4-2---2-4-5-----------4-4-0-1-1/2-4-2
D--0---------------5---2--2-------2------------------------------
A-------------------------------0--------------------------------
E----------------------------------------------------------------
chorus/intro

 Amsus2             Am         Amsus2
e-----------------------------------------------------
B--0-0-----0-----0-----1-----0-----0-----0-----1------
G------2-----2-----2-----2-----2-----2-----2-----2----  Repeat
D--------2-----2-----2-----2-----2-----2-----2-----2--
A--0--------------------------------------------------
E-----------------------------------------------------
 james


  "New blood joins this earth"   
G----------------------12-12-11-11------      
D--12-12-10-9-12p9-----0--0--0--0--10-10 kirk "a"
A--0--0--0--0-0--0-10--------------0--0-
E------------------0--------------------
pm......................................

G-------------------2-2-2-2----
D--2-2-2-5----------0-0-0-0-2-2  james "b"
A--0-0-0-3-2-2--------------0-0
E----------0-0--0-0------------ 

  a and b played togeather

e|------------------------------------------------------|
B|------------------------------------------------------|
G|---5--------4--------2-------0------------------------|
D|-----0--------0--------0-------0-------5--------------|
A|-------0-0-------0-0-----0-0-----0-0---3--------------|
E|------------------------------------------------------|
   p.m..................................


7)
e--0--0--0-0--0-0-0-0--3-3-3-3--0-0-0-0
B--1--1--1-1--1-1-1-1--3-3-3-3--0-0-0-0
G--2--2--2-2--0-0-0-0--0-0-0-0--1-1-1-1
D--2--2--2-2--2-2-2-2--0-0-0-0--2-2-2-2
A--0--0--0-0--3-3-3-3--2-2-2-2--2-2-2-2
E----------------------3-3-3-3--0-0-0-0
accoustic closing




pre-solo clean
1)
e-------------------------0-0-0-0-0-0-0-------------------------
B-------------------------0-1/3/5\3\1/3--8/10\8-7--5-3-----3----
G----4-5-7-4h5p4---4---------------------7/9-\7-7------5-4---4--
D--7-------------5---5-7---------------------------------------5
A---------------------------------------------------------------
E---------------------------------------------------------------


2)
e---------------------
B---------------------
G----------------5----
D--------------5---5-7
A------3-5/6/7--------
E--3-5----------------


3)
e--------------------7----7------10-------12--------14--------17--
B--8-7-8-7---7-8-10----8----8--8----8--10----10--12----12-14------
G----------9------------------------------------------------------
D-----------------------------------------------------------------
A-----------------------------------------------------------------
E-----------------------------------------------------------------


Solo (distorted) really accurate
   ^  ^      ^                    ^
e-----------------------------------
B--7--7-----------------------------
G--7--7-5---------------------------
D---------7~~7-5--------------------
A----------------7-5-3-5-3--------3-
E--------------------------5-3-5----
                    pm..............

                                   AH       AH        AH
e----------------------------------10--------8--------10---
B-------------------7---7-8-7-8-10----10--10---10--10----10
G-----5-7-5-7/9-7-9---9------------------------------------
D--/7------------------------------------------------------
A----------------------------------------------------------
E----------------------------------------------------------

   ^   ^   ^    ^  ^                     ^
e---------------20-20--20-17-20p17----17---
B--20-20--20-17--------------------20----20
G------------------------------------------
D------------------------------------------
A------------------------------------------
E------------------------------------------
  (guitar fill *) while you bend 20th fret 3 times 
                                                (__7times_)
e-10p9-7-9----9------------------------------------------12----------
B----------10---8-7---7-------------------------------13----13-------
G-------------------9---9--7/5--7-5/4--5-4/5-/-14--------------14----
D--------------------------------------------------------------------
A--------------------------------------------------------------------
E--------------------------------------------------------------------

   ^  ^    ^     ^  ^                            
e-----------------------17-19-20-19-17-19-17----17---------
B---------------20--20-----------------------20----20-17---
G--19-19--19-17------------------------------------------19
D----------------------------------------------------------
A----------------------------------------------------------
E----------------------------------------------------------

e------------------------------------
B------------20---17h18p17~~~17h18p17
G--19--19-17-------------------------
D------------------------------------
A------------------------------------
E------------------------------------



  (guitar fill *)    ^  ^ ^ ^ bend
e|------------------------------------------------------|
B|------------------------------------------------------|
G|------------------4-----------------------------------|
D|--7--7--7-2-------------------------------------------|
A|--5--5--5-0---0---------------------------------------|
E|------------------------------------------------------|



     I've seen a lot of different versions of the unforgiven
     guitar solo that were floped, but this one, I tabed from my official
     metallica song book.   TAke my word it.. Enjoy!!!!!!!!!!!!


Tap to rate this tab
# A B C D E F G H I J K L M N O P Q R S T U V W X Y Z