Song name
# A B C D E F G H I J K L M N O P Q R S T U V W X Y Z

Metallica - Tuesdays Gone tab

INTRO:

E||-9---9-10-9-7---9-7-7-5--7-9------5-7-5---9---9-10-9-9-7---9-7---------|
B||-----------------------------7-----------------------------------------|
G||-----------------------------------------------------------------------|
D||-----------------------------------------------------------------------|
A||-----------------------------------------------------------------------|
E||-----------------------------------------------------------------------|


12-10---12-10---12-10------------------------------------------------------|
------10------10-----------------------------------------------------------|
----------------------6--4-6-4-2---6--4-6-4----6-4-6-4-6-4-----------------|
--------------------------------------------2--------------4---4-4-4-0---0-|
-----------------------------------------------------------------------4---|
---------------------------------------------------------------------------|

------------------------------------------------------------------0------|
-------------------------------------------5-3---5-3---5-3----2-3---2----|
---------2-4-2-4-2>6---6-4-2-------------------2-----2-----2----------2--|
-----2-4---------------------2---2-h4-2-0--------------------------------|
-2-4---------------------------------------------------------------------|
-------------------------------------------------------------------------|

  A        E   F#m          D
Train roll on, on down the line..won't you,
A                 E       D
please take my problems, away.
A                E   F#m          D
I feel the wind blow, outside my door..means I'm,
A                E        D
I'm leaving my woman, at home.


(Chorus 1)
A          G          D
Tuesday's gone, with wind.
A          E              D
My baby's gone, with the wind.


SOLO 1

E||-----------------------------------------------------------------------|
B||-----------------------------------------------------------------------|
G||-6-4-6-4-6-4-2---6--4-6-4---6-6-6-4---------------------------2-4-2-4--|
D||--------------------------2----------4---4-4-4-0---0------2-4----------|
A||-------------------------------------------------4----2-4--------------|
E||-----------------------------------------------------------------------|

-------------------------------------------------0-----|
--------------------------5-3---5-3---5-3----2-3---2---|
2>6---6-4-2-------------------2-----2-----2----------2-|
------------2---2-h4-2-0-------------------------------|
-------------------------------------------------------|
-------------------------------------------------------|

And I don't know, oh where I'm going,
I just want to be, left alone.
And when this train ends, I'll try again..'cause I'm
I'm leaving my woman, at home.

(Chorus 2)
A          G          D
Tuesday's gone, with wind.
A          G          D
Tuesday's gone, with wind.
A          G          D
Tuesday's gone, with wind.
A          E              D
My baby's gone, with the wind.


SOLO 2

E||-------------------------------------------------------------------|
B||-------------------------------------------------------------------|
G||-6-4-6-4-6-4-2---6--4-6-4----6-6-6-4----2----------------4>6-4-2---|
D||--------------------------2----------4----4-2-0------2-4-----------|
A||-------------------------------------------------2-4---------------|
E||-------------------------------------------------------------------|

---------------------------12------|
------------------------10---------|
-4-4>6-4-2-6-4---6-11-9------------|
-----------------------------------|
-----------------------------------|
-----------------------------------|

(Chorus 2)

Train roll on, I'm many miles from my home,
I'm riding my blues, away.
Well, Tuesday you see, well she had to be free,
and somehow I've got to, carry on.

(Chorus 2)

END.

NOTE:
On every chords , during the song verses , another guitar can do this arpeggio : thumb , 
forefinger ,  middle finger, ring finger , middle finger , forefinger .

Enjoy !
Tap to rate this tab
 
# A B C D E F G H I J K L M N O P Q R S T U V W X Y Z