Song name
# A B C D E F G H I J K L M N O P Q R S T U V W X Y Z

Metallica - Suicide And Redemption tab

Suicide & Redemption guitar solos - tabbed by ben3296
I presume one is by Hammett and the other Hetfield, though I don't know which is which

Standard Tuning, 4/4 time signature, about 164bpm

W=whole note
H=half note
Q=quarter note
E=eighth note
S=sixteenth note
a=acciaccatura (grace note)

h=hammer on
p=pull off
s=slide
~=vibrato
(t)=tremolo picking

/-3-\=triplets
.=dotted note
..=double dotted note
a note in brackets means a tied note that is not picked



GUITAR SOLO 1 (6:18)

       /-3-\                                 /--3--\
   S S S S S S S Q   E Q   S  S  S  S  S  S  S  S  S  Q    E  E 
e-|-----------------------|-------------------------------------|
B-|-----------------------|-------------------------------------|
G-|4h5p4p2p0-----4~~~4-4/-|16-16-14----17-17-16h14----16~~~16\0-|
D-|----------4h0----------|---------17-------------17-----------|
A-|-----------------------|-------------------------------------|
E-|-----------------------|-------------------------------------|

       /-3-\
   S S S S S S S Q   E Q   S  S  S  S  S  S  S  S  Q    Q   
e-|-----------------------|---------------------------------|
B-|-----------------------|---------------------------------|
G-|4h5p4p2p0-----4~~~4-4/-|17-16-14----17-16-14----16~~~----|
D-|----------4h0----------|---------17----------17----------|
A-|-----------------------|---------------------------------|
E-|-----------------------|-----------------------------14\-|

   E  S S S S E  S S S S E  S S  S S E  S S E  E E Q    Q(t) Q(t) Q(t) Q(t)
e-|-----------------------------|----------------------|7----8----10---12--|
B-|-----------------------------|----------------------|x----x----x----x---|
G-|-----------4--4-4-4-4--------|----4--4-4-4--4-5-5~~~|4----5----7----9---|
D-|-----------------------------|----------------------|-------------------|
A-|2--2-2-2-2------------2--2-2-|2-2-------------------|-------------------|
E-|-----------------------------|----------------------|-------------------|

   H(t)    E  E  E  E   E Q   E  Q    E  E   H(t)    E  E  E  E   E E  E  E  Q   E  E    
e-|19------------------|--------------------|19------------------|---------------------|
B-|x-------------------|--------------------|x-------------------|---------------------|
G-|16------16----------|--------------------|16------16----------|---------------------|
D-|-----------16-14-17~|~~16~~14-16---16-16-|-----------16-14-17~|~~16-14-17-16~~16-16-|
A-|--------------------|--------------------|--------------------|---------------------|
E-|--------------------|--------------------|--------------------|---------------------|

                                                /-3-\              /-3-\ /-3-\ /-3-\ /-3-\
   Q.    E   Q     a Q     Q   Q   S S Q.     E S S S E E E E E E  E E E E E E E E E E E E
e-|----------------------|-------------------|3-2h3p2-----2-------|------------------------|
B-|----------------------|-------------------|--------5-3---5-3-2-|5-3-2-5-3-2-3-2---3-2---|
G-|16---/19-(19)--\9b11--|(11)r9---7h9p7~~~~~|--------------------|----------------4-----4-|
D-|----------------------|-------------------|--------------------|------------------------|
A-|----------------------|-------------------|--------------------|------------------------|
E-|----------------------|-------------------|--------------------|------------------------|

                                /-3-\
   H       E E E E  E E E E E E E E E  Q.    E E E E E
e-|----------------|------------------|----------------|
B-|----------------|------------------|----------------|
G-|2~~~~~~~~h4-4s7-|7-4-4---4h7-4h7p4-|6~~~~~6-6s7-7---|
D-|----------------|------------------|----------------|
A-|----------------|------------------|----------------|
E-|----------------|------------------|----------------|

   S  S  S  S  S  S  S  S  S  S  S  S  S  S  S  S   Q   H. 
e-|22h19----19-22h19----19-22h19----19-22h19----19-|22\----------|
B-|------22----------22----------22----------22----|-------------|
G-|------------------------------------------------|-------------|
D-|------------------------------------------------|-------------|
A-|------------------------------------------------|-------------|
E-|------------------------------------------------|-------------|




GUITAR SOLO 2 (6:47)

   H..           E  E E E Q   E E E  a E E E E E E E E  Q   E S S S S E E E
e-|----------------|----------------|------------------|--------------------|
B-|5---------------|5---2-----2-2-4-|4b5r4b5r4b5r4b5---|2---2-4b5r4h2-------|
G-|4b6----------r4b|5r4-2-----2-2-4-|4b5r4b5r4b5r4b5---|2---2-4b5r4h2---2-4-|
D-|----------------|------4~~~------|----------------4-|--------------4-----|
A-|----------------|----------------|------------------|--------------------|
E-|----------------|----------------|------------------|--------------------|

   H..           E  E E E Q   E E E  a E E E E E E E E  Q   E Q   S S S S S S
e-|----------------|----------------|------------------|----------------------|
B-|5---------------|5---2-----2-2-4-|4b5r4b5r4b5r4b5---|2---------------------|
G-|4b6----------r4b|5r4-2-----2-2-4-|4b5r4b5r4b5r4b5---|2---2-------2-4p2---2-|
D-|----------------|------4~~~------|----------------4-|------4~~~4-------4---|
A-|----------------|----------------|------------------|----------------------|
E-|----------------|----------------|------------------|----------------------|

   a Q   Q   a E E E E  E a E E Q   E E E  a Q   Q   a E E E E
e-|--------------------|------------------|--------------------|
B-|5s7---5-------------|------------------|5s7---5-------------|
G-|----------4b6r4-2---|2-4b6r4-2~~~--2-4-|----------4b6r4-2---|
D-|------------------4-|------------4-----|------------------4-|
A-|--------------------|------------------|--------------------|
E-|--------------------|------------------|--------------------|

   E E E Q   E E E  a Q   Q   a E E E E  E E E E E E S S S S
e-|----------------|--------------------|--------------------|
B-|----------------|5s7---5-------------|--------------------|
G-|2-5-4-2~~~--2-4-|----------4b6r4-2---|2-5-4-2---2-4b6r4p2-|
D-|----------4-----|------------------4-|--------4-----------|
A-|----------------|--------------------|--------------------|
E-|----------------|--------------------|--------------------|

   S S S S E S S S S E S S S S  E S S S S E S S S S S S S S
e-|----------------------------|----------------------------|
B-|----------------------------|----------------------------|
G-|4b6r4h2---4b6r4h2---4b6r4h2-|--4b6r4h2---4b6r4h2-4b6r4h2-|
D-|--------4---------4---------|4---------4-----------------|
A-|----------------------------|----------------------------|
E-|----------------------------|----------------------------|

   S S S S S S S S S S S S S S S S  S S S S S S S S S S S S S S S S  
e-|--------------------------------|--------------------------------|
B-|--------------------------------|--------------------------------|
G-|4h2---2-4h2-4h2---2-4h2-4h2---2-|4h2---2-4h2-4h2-4h2-4h2-4h2---2-|
D-|----4-----------4-----------4---|----4-----------------------4---|
A-|--------------------------------|--------------------------------|
E-|--------------------------------|--------------------------------|

   S S S S S S S S S S S S S S S S  S S S S S  S S  S S  S S  S  S  S  S  S
e-|--------------------------------|-----------------------------------------|
B-|--------------------------------|-----------------------------------------|
G-|5h3---4-6h4---5-7h5---6-8h6---7-|9h7---8-10h8----9-11h9----10-12h10----11-|
D-|----5-------6-------7-------8---|----9--------10--------11----------12----|
A-|--------------------------------|-----------------------------------------|
E-|--------------------------------|-----------------------------------------|

   W
e-|19------|(dip -1 using bar)
B-|19------|
G-|--------|
D-|--------|
A-|--------|
E-|--------|
Tap to rate this tab
# A B C D E F G H I J K L M N O P Q R S T U V W X Y Z