Song name
# A B C D E F G H I J K L M N O P Q R S T U V W X Y Z

Metallica - All Within My Hands tab

All Within My Hands
Metallica
St. Anger
Drop C Tuning
Gtr 1- Jaymz CGCFAD
Gtr 2- Kirk CGCFAD

Intro Gtr 2 distortion w/ wah
D||-----------------------------------------------||
A||o---------------------------------------------o||
F||-----------------------------------------------||
C||--x-x-x-x-x-x-x-x-x-x-x-x-x-x-x-x-x-x-x-x-x-x--||
G||o-x-x-x-x-x-x-x-x-x-x-x-x-x-x-x-x-x-x-x-x-x-x-o||
C||--x-x-x-x-x-x-x-x-x-x-x-x-x-x-x-x-x-x-x-x-x-x--||

Gtr 1,2 distortion
D||-----------------------------------||
A||o---------------------------------o||
F||-----------------------------------||
C||--7-7---0-0---6-6---0-0---5-4-3~~--||
G||o-7-7---0-0---6-6---0-0---5-4-3~~-o||
C||--7-7---0-0---6-6---0-0---5-4-3~~--||
     pm-   - -   - -   - -   - -
                            x4
D||-------------------------||
A||o-----------------------o||
F||-------------------------||
C||--7-7---0-0---6-6---0-0--||
G||o-7-7---0-0---6-6---0-0-o||
C||--7-7---0-0---6-6---0-0--||

Gtr 1                                 x4
D||-------------------------|---------||
A||o------------------------|--------o||
F||-------------------------|---------||
C||--7-7---0-0---6-6---0-0--|--x-x-x--||
G||o-7-7---0-0---6-6---0-0--|--x-x-x-o||
C||--7-7---0-0---6-6---0-0--|--x-x-x--||
Gtr 2                                 ||
D||-------------------------|---------||
A||o------------------------|--------o||
F||-------------------------|---------||
C||--7-7---0-0---6-6---0-0--|---------||
G||o-7-7---0-0---6-6---0-0--|--------o||
C||--7-7---0-0---6-6---0-0--|---------||

Gtr 1                                           x4
D|-------------------------|1st-time-|-3rd-time-||
A|-------------------------|--only---|--only----||
F|-------------------------|---7-----|---12-----||
C|--7-7---0-0---6-6---0-0--|---7-----|---12-----||
G|--7-7---0-0---6-6---0-0--|---------|----------||
C|--7-7---0-0---6-6---0-0--|---------|----------||
Gtr 2                                           ||
D|-------------------------|---------|----------||
A|-------------------------|---------|----------||
F|-------------------------|---------|----------||
C|--7-7---0-0---6-6---0-0--|---------|----------||
G|--7-7---0-0---6-6---0-0--|---------|----------||
C|--7-7---0-0---6-6---0-0--|---------|----------||

Gtr1,2                     x3
D|-------------------------||--------------------------------------------|
A|-------------------------||--------------------------------------------|
F|-------------------------||--------------------------------------------|
C|--7-7---0-0---6-6---0-0--||---3~~--------------7-7---0-0---6-6---0-0---|
G|--7-7---0-0---6-6---0-0--||---3~~---3-3-3-3----7-7---0-0---6-6---0-0---|
C|--7-7---0-0---6-6---0-0--||---3~~---3-3-3-3----7-7---0-0---6-6---0-0---|
                                      pm- - -
Gtr 1 clean                                           x2
D||---------------------------------------------------||
A||--------------------------------------------------o||
F||---------------------------------------------------||
C||---------------------------------------------------||
G||--5-5-5-5-5-5-5-5-5-5-5-5-5-5-5-5-5-5-5-5-5-5-5-5-o||
C||--0-0-3-0-0-3-0-0-3-0-0-3-0-0-5-0-0-5-0-0-5-0-0-5--||
   pm- - - - - - - - - - - - - - - - - - - - - - - -  ||
Gtr 2 distortion                                      x2
D||---------------------------------------------------||
A||--13~~--------------------------------------------o||
F||------------12/14~--------12~~--------10~~---------||
C||--10~~---------------------------------------------||
G||------------10/12~--------10~~---------8~~~-------o||
C||---------------------------------------------------||

Verse Gtr 1,2 clean
D|---------------------------------------------------|
A|---------------------------------------------------|
F|---------------------------------------------------|
C|---------------------------------------------------|
G|--5-5-5-5-5-5-5-5-5-5-5-5-5-5-5-5-5-5-5-5-5-5-5-5--|
C|--0-0-3-0-0-3-0-0-3-0-0-3-0-0-3-0-0-3-0-0-3-0-0-3--|
  Pm- - - - - - - - - - - - - - - - - - - - - - - -

D|---------------------------------------------------|
A|---------------------------------------------------|
F|---------------------------------------------------|
C|---------------------------------------------------|
G|--5-5-5-5-5-5-5-5-5-5-5-5-5-5-5-5-5-5-5-5-5-5-5-5--|
C|--0-0-5-0-0-5-0-0-5-0-0-5-0-0-5-0-0-5-0-0-3-0-0-3--|
  Pm- - - - - - - - - - - - - - - - - - - - - - - -

D|---------------------------------------------------|
A|---------------------------------------------------|
F|---------------------------------------------------|
C|---------------------------------------------------|
G|--5-5-5-5-5-5-5-5-5-5-5-5-5-5-5-5-5-5-5-5-5-5-5-5--|
C|--0-0-3-0-0-3-0-0-3-0-0-3-0-0-3-0-0-3-0-0-3-0-0-3--|
  Pm- - - - - - - - - - - - - - - - - - - - - - - -

D|---------------------------------------------------|
A|---------------------------------------------------|
F|---------------------------------------------------|
C|---------------------------------------------------|
G|--0-0-3-0-0-3-0-0-3-0-0-3-0-0-3-0-0-3-0-0-3-0-0-3--|
C|--5-5-5-5-5-5-5-5-5-5-5-5-5-5-5-5-5-5-5-5-5-5-5-5--|
  Pm- - - - - - - - - - - - - - - - - - - - - - - -

Gtr 1 clean
D|------5-------5-------5-------5-------5-------5-------5-------5------|
A|----6---6---6---6---6---6---6---6---5---5---5---5---5---5---5---5----|
F|--7-------7-------7-------7-------7-------7-------7-------7-------7--|
C|---------------------------------------------------------------------|
G|---------------------------------------------------------------------|
C|---------------------------------------------------------------------|

D|------5-------5-------5-------5-------5-------5-----------------------|
A|----8---8---8---8---8---8---8---8---6---6---6---6------6p5---5--------|
F|----------7-------7-------7-------7-------7-------7-------------7-5-7-|
C|----------------------------------------------------------------------|
G|----------------------------------------------------------------------|
C|----------------------------------------------------------------------|

Gtr 1,2 distortion                                                                       
                    x2
D|--------------------------------------------------------------------------||
A|--------------------------------------------------------------------------||
F|--------------------------------------------------------------------------||
C|--0-3-3-3-3-3-3-3-3-2-2-2-2-2-2-2-2-5-5-5-5-5-5-5-5-3-3-3-----------------||
G|--0-3-3-3-3-3-3-3-3-2-2-2-2-2-2-2-2-5-5-5-5-5-5-5-5-3-3-3--3-2-3---3-2-0--||
C|--0-3-3-3-3-3-3-3-3-2-2-2-2-2-2-2-2-5-5-5-5-5-5-5-5-3-3-3--3-2-3---3-2-0--||
                                                             Pm- -   - - -

Pre Chorus                                                            x3
D|--------------------------------------------------------------------||
A|--------------------------------------------------------------------||
F|--------------------------------------------------------------------||
C|--------------------------------------------------------------------||
G|-5-6-7---5-6-7----3-4-5------------5-6-7---5-6-7----3-4-5-----------||
C|-5-6-7-0-5-6-7-0--3-4-5-0-0-0-0-0--5-6-7-0-5-6-7-0--3-4-5-0-0-0-0-0-||
Pm       -       -        - - - - -        -       -        - - - - -

Chorus
D||------------------------------------------------------|
A||o-----------------------------------------------------|
F||------------------------------------------------------|
C||---5---6---7---0--------3-----------------------------|
G||o--5---6---7---0--5-7---3---5b6r5---3-5---5b6r5---3---|
C||---5---6---7---0--5-7---3---5b6r5---3-5---5b6r5---3---|
                     Pm-               - -              x2
D|------------------------------------------------------||
A|-----------------------------------------------------o||
F|------------------------------------------------------||
C|--------------0--------3------------------------------||
G|--5---6---7---0--5-7---3---5b6r5---3-5---5b6r5---3---o||
C|--5---6---7---0--5-7---3---5b6r5---3-5---5b6r5---3----||
    Pm  -   -      - -

Gtr 1 distortion			   x2
D|-----------------------------------------||
A|-----------------------------------------||
F|-----------------------------------------||
C|--7-7---0-0---6-6---0-0---5-4-3~~--------||
G|--7-7---0-0---6-6---0-0---5-4-3~~--------||
C|--7-7---0-0---6-6---0-0---5-4-3~~--------||
    Pm-   - -   - -   - -   - -            ||
Gtr 2 distortion                           ||
D|-----------------------------------3b4r3-||
A|-----------------------------------------||
F|-----------------------------------------||
C|--7-7---0-0---6-6---0-0---5-4-3~~--------||
G|--7-7---0-0---6-6---0-0---5-4-3~~--------||
C|--7-7---0-0---6-6---0-0---5-4-3~~--------||
    Pm-   - -   - -   - -   - -

D||------------------------------------------------------|
A||o-----------------------------------------------------|
F||------------------------------------------------------|
C||---5---6---7---0--------3-----------------------------|
G||o--5---6---7---0--5-7---3---5b6r5---3-5---5b6r5---3---|
C||---5---6---7---0--5-7---3---5b6r5---3-5---5b6r5---3---|
                     Pm-               - -              x2
D|------------------------------------------------------||
A|-----------------------------------------------------o||
F|------------------------------------------------------||
C|--------------0--------3------------------------------||
G|--5---6---7---0--5-7---3---5b6r5---3-5---5b6r5---3---o||
C|--5---6---7---0--5-7---3---5b6r5---3-5---5b6r5---3----||
    Pm  -   -      - -

Gtr 1
D|------------------------------------------|
A|------------------------------------------|
F|------------------------------------------|
C|------------------------------------------|
G|-0--0--x-x-------0--x-x-------0-x-x-------|
C|-0--0--x-x-------0--x-x-------0-x-x-------|
     Pm            -                        |
Gtr 2                                       |
|-----------10-----------10----------10-----|
|-----------13b15--------13b15-------13b15--|
|-------------------------------------------|
|-------------------------------------------|
|-0--0--------------------------------------|
|-0--0--------------------------------------|
     pm

Gtr 1
D|------------------------------------------------------||
A|------------------------------------------------------||
F|------------------------------------------------------||
C|---------------------------------------------0--0-----||
G|-0--0--x-x-------0--x-x-------0-x-x-------0--0--0-----||
C|-0--0--x-x-------0--x-x-------0-x-x-------0--0--0-----||
                   Pm           -           -           ||
Gtr 2                                                   ||
D|------------------------------------------------------||
A|-----------10-----------10----------10----------------||
F|-----------12b14--------12b14-------12b14-------------||
C|---------------------------------------------0--0-----||
G|-0-------------------------------------------0--0-----||
C|-0-------------------------------------------0--0-----||

                           x4
D|-------------------------||
A|-------------------------||
F|-------------------------||
C|--7-7---0-0---6-6---0-0--||
G|--7-7---0-0---6-6---0-0--||
C|--7-7---0-0---6-6---0-0--||

Gtr 1 clean
D|---------------------------------------------------||
A|---------------------------------------------------||
F|---------------------------------------------------||
C|---------------------------------------------------||
G|--5-5-5-5-5-5-5-5-5-5-5-5-5-5-5-5-5-5-5-5-5-5-5-5--||
C|--0-0-3-0-0-3-0-0-3-0-0-3-0-0-5-0-0-5-0-0-5-0-0-5--||
  Pm- - - - - - - - - - - - - - - - - - - - - - - -  ||
Gtr 2 distortion                                     ||
D|---------------------------------------------------||
A|--13~~---------------------------------------------||
F|------------12/14~--------12~~--------10~~---------||
C|--10~~---------------------------------------------||
G|------------10/12~--------10~~---------8~~~--------||
C|---------------------------------------------------||

Verse Gtr 1,2 clean
D|---------------------------------------------------|
A|---------------------------------------------------|
F|---------------------------------------------------|
C|---------------------------------------------------|
G|--5-5-5-5-5-5-5-5-5-5-5-5-5-5-5-5-5-5-5-5-5-5-5-5--|
C|--0-0-3-0-0-3-0-0-3-0-0-3-0-0-3-0-0-3-0-0-3-0-0-3--|
  Pm- - - - - - - - - - - - - - - - - - - - - - - -

D|---------------------------------------------------|
A|---------------------------------------------------|
F|---------------------------------------------------|
C|---------------------------------------------------|
G|--5-5-5-5-5-5-5-5-5-5-5-5-5-5-5-5-5-5-5-5-5-5-5-5--|
C|--0-0-5-0-0-5-0-0-5-0-0-5-0-0-5-0-0-5-0-0-3-0-0-3--|
  Pm- - - - - - - - - - - - - - - - - - - - - - - -

D|---------------------------------------------------|
A|---------------------------------------------------|
F|---------------------------------------------------|
C|---------------------------------------------------|
G|--5-5-5-5-5-5-5-5-5-5-5-5-5-5-5-5-5-5-5-5-5-5-5-5--|
C|--0-0-3-0-0-3-0-0-3-0-0-3-0-0-3-0-0-3-0-0-3-0-0-3--|
  Pm- - - - - - - - - - - - - - - - - - - - - - - -
D|---------------------------------------------------|
A|---------------------------------------------------|
F|---------------------------------------------------|
C|---------------------------------------------------|
G|--0-0-3-0-0-3-0-0-3-0-0-3-0-0-3-0-0-3-0-0-3-0-0-3--|
C|--5-5-5-5-5-5-5-5-5-5-5-5-5-5-5-5-5-5-5-5-5-5-5-5--|
  Pm- - - - - - - - - - - - - - - - - - - - - - - -

Gtr 1 clean
D|------5-------5-------5-------5-------5-------5-------5-------5------|
A|----6---6---6---6---6---6---6---6---5---5---5---5---5---5---5---5----|
F|--7-------7-------7-------7-------7-------7-------7-------7-------7--|
C|---------------------------------------------------------------------|
G|---------------------------------------------------------------------|
C|---------------------------------------------------------------------|

D|------5-------5-------5-------5-------5-------5-----------------------|
A|----8---8---8---8---8---8---8---8---6---6---6---6------6p5---5--------|
F|----------7-------7-------7-------7-------7-------7-------------7-5-7-|
C|----------------------------------------------------------------------|
G|----------------------------------------------------------------------|
C|----------------------------------------------------------------------|

Gtr 1,2 distortion                                                          x2
D|--------------------------------------------------------------------------||
A|--------------------------------------------------------------------------||
F|--------------------------------------------------------------------------||
C|--0-3-3-3-3-3-3-3-3-2-2-2-2-2-2-2-2-5-5-5-5-5-5-5-5-3-3-3-----------------||
G|--0-3-3-3-3-3-3-3-3-2-2-2-2-2-2-2-2-5-5-5-5-5-5-5-5-3-3-3--3-2-3---3-2-0--||
C|--0-3-3-3-3-3-3-3-3-2-2-2-2-2-2-2-2-5-5-5-5-5-5-5-5-3-3-3--3-2-3---3-2-0--||
                                                             Pm- -   - - -

Pre Chorus                                                            x3
D|--------------------------------------------------------------------||
A|--------------------------------------------------------------------||
F|--------------------------------------------------------------------||
C|--------------------------------------------------------------------||
G|-5-6-7---5-6-7----3-4-5------------5-6-7---5-6-7----3-4-5-----------||
C|-5-6-7-0-5-6-7-0--3-4-5-0-0-0-0-0--5-6-7-0-5-6-7-0--3-4-5-0-0-0-0-0-||
Pm       -       -        - - - - -        -       -        - - - - -

Chorus
D||------------------------------------------------------|
A||o-----------------------------------------------------|
F||------------------------------------------------------|
C||---5---6---7---0--------3-----------------------------|
G||o--5---6---7---0--5-7---3---5b6r5---3-5---5b6r5---3---|
C||---5---6---7---0--5-7---3---5b6r5---3-5---5b6r5---3---|
                     Pm-               - -              x2
D|------------------------------------------------------||
A|-----------------------------------------------------o||
F|------------------------------------------------------||
C|--------------0--------3------------------------------||
G|--5---6---7---0--5-7---3---5b6r5---3-5---5b6r5---3---o||
C|--5---6---7---0--5-7---3---5b6r5---3-5---5b6r5---3----||
    Pm  -   -      - -

Gtr 1 distortion			   x2
D|-----------------------------------------||
A|-----------------------------------------||
F|-----------------------------------------||
C|--7-7---0-0---6-6---0-0---5-4-3~~--------||
G|--7-7---0-0---6-6---0-0---5-4-3~~--------||
C|--7-7---0-0---6-6---0-0---5-4-3~~--------||
    Pm-   - -   - -   - -   - -            ||
Gtr 2 distortion                           ||
D|-----------------------------------3b4r3-||
A|-----------------------------------------||
F|-----------------------------------------||
C|--7-7---0-0---6-6---0-0---5-4-3~~--------||
G|--7-7---0-0---6-6---0-0---5-4-3~~--------||
C|--7-7---0-0---6-6---0-0---5-4-3~~--------||
    Pm-   - -   - -   - -   - -
D||------------------------------------------------------|
A||o-----------------------------------------------------|
F||------------------------------------------------------|
C||---5---6---7---0--------3-----------------------------|
G||o--5---6---7---0--5-7---3---5b6r5---3-5---5b6r5---3---|
C||---5---6---7---0--5-7---3---5b6r5---3-5---5b6r5---3---|
                     Pm-               - -              x2
D|------------------------------------------------------||
A|-----------------------------------------------------o||
F|------------------------------------------------------||
C|--------------0--------3------------------------------||
G|--5---6---7---0--5-7---3---5b6r5---3-5---5b6r5---3---o||
C|--5---6---7---0--5-7---3---5b6r5---3-5---5b6r5---3----||
    Pm  -   -      - -

Gtr 1
D|------------------------------------------|
A|------------------------------------------|
F|------------------------------------------|
C|------------------------------------------|
G|-0--0--x-x-------0--x-x-------0-x-x-------|
C|-0--0--x-x-------0--x-x-------0-x-x-------|
     Pm            -                        |
Gtr 2                                       |
|-----------10-----------10----------10-----|
|-----------13b15--------13b15-------13b15--|
|-------------------------------------------|
|-------------------------------------------|
|-0--0--------------------------------------|
|-0--0--------------------------------------|
     pm

Gtr 1
D|------------------------------------------------------||
A|------------------------------------------------------||
F|------------------------------------------------------||
C|---------------------------------------------0---0~---||
G|-0--0--x-x-------0--x-x-------0-x-x-------0--0---0~---||
C|-0--0--x-x-------0--x-x-------0-x-x-------0--0---0~---||
                   Pm           -           -           ||
Gtr 2                                                   ||
D|------------------------------------------------------||
A|-----------10-----------10----------10----------------||
F|-----------12b14--------12b14-------12b14-------------||
C|---------------------------------------------0---0~~--||
G|-0-------------------------------------------0---0~~--||
C|-0-------------------------------------------0---0~~--||

Gtr 1
D|--------------------------------------------------------------------||
A|--------------------------------------------------------------------||
F|--------------------------------------------------------------------||
C|--------------------------------------------------------------------||
G|-6/7---------------------5b6r5-3---6/7---------------------5b6r5-3--||
C|-6/7-0-0-0-0-0-0-3-3-5-5-5b6r5-3---6/7-0-0-0-0-0-0-3-3-5-5-5b6r5-3--||
      Pm - - - - - - - - -               - - - - - - - - - -

Gtr 1,2                                                               x2
D|--------------------------------------------------------------------||
A|--------------------------------------------------------------------||
F|--------------------------------------------------------------------||
C|--------------------------------------------------------------------||
G|-6/7---------------------5b6r5-3---6/7---------------------5b6r5-3--||
C|-6/7-0-0-0-0-0-0-3-3-5-5-5b6r5-3---6/7-0-0-0-0-0-0-3-3-5-5-5b6r5-3--||
      Pm - - - - - - - - -               - - - - - - - - - -

                                   x3
D|---------------------------------||
A|o-------------------------------o||
F|---------------------------------||
C|---------------------------------||
G|o-6/7--------------3--5b6r5--3--o||
C|--6/7-0-0-0-0-0-0--3--5b6r5--3---||
pm      - - - - - -
                                                          x4
D|-----------------||-------------------------------------||
A|-----------------||o-----------------------------------o||
F|-----------------||-------------------------------------||
C|-----------------||-------------------------------------||
G|-6/7-------------||o-5-6-7---5-6-7----5b6r5-3----------o||
C|-6/7-0-0-0-0-0-0-||--5-6-7-0-5-6-7-0--5b6r5-3--0-0-0-0--||
pm     - - - - - -           -       -           - - - -
 									                  x4
D||-----------------------------------------------------------------------||
A||o---------------------------------------------------------------------o||
F||-----------------------------------------------------------------------||
C||-----------------------------------------------------------------------||
G||o-5-6-7---5-6-7----3-4-5------------5-6-7---5-6-7----3-4-5------------o||
C||--5-6-7-0-5-6-7-0--3-4-5-0-0-0-0-0--5-6-7-0-5-6-7-0--3-4-5-0-0-0-0-0---||
Pm         -       -        - - - - -        -       -        - - - - -
                                             x4
D|-------||----------------------------------||
A|-------||o--------------------------------o||
F|-------||----------------------------------||
C|-------||----------------------------------||
G|-0--0--||o-3-3-5-5-5b7r5-3---/7--0--0--0--o||
C|-0--0--||--3-3-5-5-5b7r5-3---/7--0--0--0---||
Pm -  -      - - - -               -  -  -

D||------------------------------------------------------------------|
A||o-----------------------------------------------------------------|
F||------------------------------------------------------------------|
C||------------------------------------------------------------------|
G||o-3-3-5-5-5b7r5-3---/7--0--0--0---3-3-5-5-5b7r5-3---/7--0--0--0---|
C||--3-3-5-5-5b7r5-3---/7--0--0--0---3-3-5-5-5b7r5-3---/7--0--0--0---|
                           Pm -  -                         -  -  -
D|-------------------------------------------------------------------||
A|------------------------------------------------------------------o||
F|-------------------------------------------------------------------||
C|-------------------------------------------------------------------||
G|-3-3-5-5-5b7r5-3---/7--0--0--0------------------------------------o||
C|-3-3-5-5-5b7r5-3---/7--0--0--0---7-7-7-7-5-5-5-5--3-3-3-3-2-2-2-2--||
                         -  -  -   - - - - - - - -  - - - - - - - -
                                                                      x2
D|--------------------------------------------------------------------||-----------|
A|--------------------------------------------------------------------||-----------|
F|--------------------------------------------------------------------||-----------|
C|--------------------------------------------------------------------||--3-3-3-3--|
G|-5-6-7---5-6-7----3-4-5------------5-6-7---5-6-7----3-4-5-----------||--1-1-1-1--|
C|-5-6-7-0-5-6-7-0--3-4-5-0-0-0-0-0--5-6-7-0-5-6-7-0--3-4-5-0-0-0-0-0-||--1-1-1-1--|
Pm       -       -        - - - - -        -       -        - - - - -

Chorus
D||------------------------------------------------------|
A||o-----------------------------------------------------|
F||------------------------------------------------------|
C||---5---6---7---0--------3-----------------------------|
G||o--5---6---7---0--5-7---3---5b6r5---3-5---5b6r5---3---|
C||---5---6---7---0--5-7---3---5b6r5---3-5---5b6r5---3---|
                     Pm-               - -              x2
D|------------------------------------------------------||
A|-----------------------------------------------------o||
F|------------------------------------------------------||
C|--------------0--------3------------------------------||
G|--5---6---7---0--5-7---3---5b6r5---3-5---5b6r5---3---o||
C|--5---6---7---0--5-7---3---5b6r5---3-5---5b6r5---3----||
    Pm  -   -      - -

Gtr 1 distortion			   x2
D|-----------------------------------------||
A|-----------------------------------------||
F|-----------------------------------------||
C|--7-7---0-0---6-6---0-0---5-4-3~~--------||
G|--7-7---0-0---6-6---0-0---5-4-3~~--------||
C|--7-7---0-0---6-6---0-0---5-4-3~~--------||
    Pm-   - -   - -   - -   - -            ||
Gtr 2 distortion                           ||
D|-----------------------------------3b4r3-||
A|-----------------------------------------||
F|-----------------------------------------||
C|--7-7---0-0---6-6---0-0---5-4-3~~--------||
G|--7-7---0-0---6-6---0-0---5-4-3~~--------||
C|--7-7---0-0---6-6---0-0---5-4-3~~--------||
    Pm-   - -   - -   - -   - -

D||------------------------------------------------------|
A||o-----------------------------------------------------|
F||------------------------------------------------------|
C||---5---6---7---0--------3-----------------------------|
G||o--5---6---7---0--5-7---3---5b6r5---3-5---5b6r5---3---|
C||---5---6---7---0--5-7---3---5b6r5---3-5---5b6r5---3---|
                     Pm-               - -              x2
D|------------------------------------------------------||
A|-----------------------------------------------------o||
F|------------------------------------------------------||
C|--------------0--------3------------------------------||
G|--5---6---7---0--5-7---3---5b6r5---3-5---5b6r5---3---o||
C|--5---6---7---0--5-7---3---5b6r5---3-5---5b6r5---3----||
    Pm  -   -      - -

Gtr 1
D|------------------------------------------|
A|------------------------------------------|
F|------------------------------------------|
C|------------------------------------------|
G|-0--0--x-x-------0--x-x-------0-x-x-------|
C|-0--0--x-x-------0--x-x-------0-x-x-------|
     Pm            -                        |
Gtr 2                                       |
|-----------10-----------10----------10-----|
|-----------13b15--------13b15-------13b15--|
|-------------------------------------------|
|-------------------------------------------|
|-0--0--------------------------------------|
|-0--0--------------------------------------|
     pm

Gtr 1
D|------------------------------------------------------||
A|------------------------------------------------------||
F|------------------------------------------------------||
C|---------------------------------------------0---0~---||
G|-0--0--x-x-------0--x-x-------0-x-x-------0--0---0~---||
C|-0--0--x-x-------0--x-x-------0-x-x-------0--0---0~---||
                   Pm           -           -           ||
Gtr 2                                                   ||
D|------------------------------------------------------||
A|-----------10-----------10----------10----------------||
F|-----------12b14--------12b14-------12b14-------------||
C|---------------------------------------------0---0~~--||
G|-0-------------------------------------------0---0~~--||
C|-0-------------------------------------------0---0~~--||

Gtr 1,2 		   x4
D|-------------------------||
A|-------------------------||
F|-------------------------||
C|--7-7---0-0---6-6---0-0--||
G|--7-7---0-0---6-6---0-0--||
C|--7-7---0-0---6-6---0-0--||

Outro Gtr 1,2                                     x9
D||-----------------------------------------------||
A||o---------------------------------------------o||
F||-----------------------------------------------||
C||-----------------------------------------------||
G||o-7-------6---(6)----3-----(3)---------(3)----o||
C||--7-------6---(6)----3-----(3)---------(3)-----||

Gtr 1
D|----------------------------------------|
A|----------------------------------------|
F|----------------------------------------|
C|-----------------------4------(4)-------|
G|--7-------6---(6)-----------------------|
C|--7-------6---(6)------1------(1)-------|

Gtr 2
D|----------------------------------------|
A|----------------------------------------|
F|------------------------8------(8)------|
C|------------------------9------(9)------|
G|--7--------6---(6)------7------(7)------|
C|--7--------6---(6)----------------------|

Gtr 1
D|----------------------------------------|
A|----------------------------------------|
F|----------------------------------------|
C|----------------------------------------|
G|--7-------6---(6)------1b3--------------|
C|--7-------6---(6)------1b3-/2~~~~(2)~~~-|
Gtr 2					    |
D|----------------------------------------|
A|----------------------------------------|
F|-----------------------10-----(10)------|
C|------------------------8------(8)------|
G|--7--------6---(6)------9------(9)------|
C|--7--------6---(6)----------------------|

Gtr 1
D|----------------------------------------|
A|----------------------------------------|
F|----------------------------------------|
C|----------------------------------------|
G|------------------------------1---------|
C|--(2)~~~-----(2)~~~~---(2)~~--2---(2)~~-|
Gtr 2                                     |
D|----------------------------------------|
A|----------------------------------------|
F|----------------------------------------|
C|----------------------------------------|
G|--7--------6---(6)------------3-----(3)-|
C|--7--------6---(6)------------3-----(3)-|

Gtr 1
D|----------------------------------------|
A|----------------------------------------|
F|----------------------------------------|
C|----------------------------------------|
G|----------------------------------------|
C|--(2)~~~-----(2)~~~~---(2)~~-----(2)~---|
Gtr 2                                     |
D|----------------------------------------|
A|----------------------------------------|
F|--10---12----12b13~~~--(13)--r12~~~-----|
C|--10------------------------------------|
G|----------------------------------------|
C|----------------------------------------|
Tap to rate this tab
# A B C D E F G H I J K L M N O P Q R S T U V W X Y Z