Song name
# A B C D E F G H I J K L M N O P Q R S T U V W X Y Z

Method Man - Whats Happenin tab

Song: What's Happenin'
Artist: Method Man featuring Busta Rhymes
tabbed by: Qweyet Gi

Since hip hop is notorious for sampling portions of songs and riffs, this is no 
Three playable riffs. Self-explanatory.
Leave your criticisms.

  Main Riff - used in no specific order, except for the "chorus"
e|--------0h1p0-h1p0h1p0h1p0-----|
B|------3------------------------|
G|----2--------------------------|
D|-------------------------------|
A|-------------------------------|
E|-------------------------------|

  Random Riff - shows up once in the beginning and randomly in the middle
e|-------------------------------|
B|-------------------------------|
G|-------------------------------|
D|---------0---------------------|
A|----0-------3------------------|
E|---------------4---------------|

 Bridge Riff - occurs in between chorus to verse
      Dm          Amaj  Dm
e|-------5-----5-----5-----------|
B|----6--6--6--6-----5--6-6------|
G|----7--7--7--7--6--6--7-7------|
D|----7-----7-----7-----7-7------|
A|----5-----5-----7-----5-5------|
E|----------------5--------------|
Tap to rate this tab
# A B C D E F G H I J K L M N O P Q R S T U V W X Y Z