Song name
# A B C D E F G H I J K L M N O P Q R S T U V W X Y Z

Metric - Gimme Sympathy Acoustic tab

#----------------------------------PLEASE NOTE---------------------------------#
#This file is the author's own work and represents their interpretation of the #
#song. You may only use this file for private study, scholarship, or research. #
#------------------------------------------------------------------------------##


Artist: Metric
Song: Gimme Sympathy // Acoustic
Tabbed by: Manthony
03.04.12


TUNING: (E A D A C# E)





CHORD DIAGRAM

----------------------------------------------------------------


 A              Aadd9           A/F#            A6/B                   
                                  
 x 0 2 0 0 0    x 7 9 0 0 0     x 9 11 0 0 0    x 2 4 0 0 0


 Dadd9          A7M             A/F#*           A7M/F#                    
                                  
 x 5 4 0 5 0    x 7 6 0 7 0     x 9 x 0 8 0     x 9 x 0 7 0 


 C#m                                 
                                  
 x 4 6 7 0 0  
           
       
----------------------------------------------------------------



E||-0-0-0-0-0-0-0-0-0-0-0-0-0-0-0-0--0-0-0-0-0-0-0-0-0-0-0-0-0-0-0-0--||
B||-0-0-0-0-0-0-0-0-0-0-0-0-0-0-0-0--0-0-0-0-0-0-0-0-0-0-0-0-0-0-0-0--||
G||-0-0-0-0-0-0-0-0-0-0-0-0-0-0-0-0--0-0-0-0-0-0-0-0-0-0-0-0-0-0-0-0--|| 
D||-2-2-2-2-2-2-2-2-2-2-2-2-2-2-2-2--9-9-9-9-9-9-9-9-9-9-9-9-9-9-9-9--||
A||-0-0-0-0-0-0-0-0-0-0-0-0-0-0-0-0--7-7-7-7-7-7-7-7-7-7-7-7-7-7-7-7--||
E||-------------------------------------------------------------------||

E||-0--0--0--0--0--0--0--0--0--0--0--0--0--0--0--0---0-0-0-0-0-0-0-0-0-0-0-0-0-0-0-0--||
B||-0--0--0--0--0--0--0--0--0--0--0--0--0--0--0--0---0-0-0-0-0-0-0-0-0-0-0-0-0-0-0-0--||
G||-0--0--0--0--0--0--0--0--0--0--0--0--0--0--0--0---0-0-0-0-0-0-0-0-0-0-0-0-0-0-0-0--|| REPEAT 
D||-11-11-11-11-11-11-11-11-11-11-11-11-11-11-11-11--4-4-4-4-4-4-4-4-4-4-4-4-4-4-4-4--||
A||-9--9--9--9--9--9--9--9--9--9--9--9--9--9--9--9---2-2-2-2-2-2-2-2-2-2-2-2-2-2-2-2--||
E||-----------------------------------------------------------------------------------||


Get hot
Get too close to the flame
Wild open space
Talk like an open book
Sign me up
Got no time to take a picture
I'll remember someday
All the chances we took



------------------------------


     
E||--0--|--0--||
B||--5--|--7--||
G||--0--|--0--|| 
D||--4--|--6--||
A||--5--|--7--||
E||-----|-----||


We're so close to something better left unknown
We're so close to something better left unknown
I can feel it in my bones




..............................................................................


E||-----0-0-0-0-|-----0--0-0--|-0-0-0--0-0-0---0-0-0--0-0-0--||
B||-----8-8-7-0-|-----5--5-3--|-0-0-0--0-0-0---0-0-0--0-0-0--||
G||-0-0-0-0-0-0-|-----0--0-0--|-0-0-4--4-2-4---0-0-4--4-2-4--|| 
D||-x-x-x-x-0---|-4-4-4--4-4--|-2-2-2--2-2-2---2-2-2--2-2-2--||
A||-9-9-9-9-----|-5-5-5--5-5--|-0-0-0--0-0-0---0-0-0--0-0-0--||
E||-------------|-------------|------------------------------||

E||-----0-0-0-0-|-----0--0-0--|-0-0-0--0-0-0-------0--0-0-0--||
B||-----8-8-7-0-|-----5--5-3--|-0-0-0--0-0-0-------0--0-0-0--||
G||-0-0-0-0-0-0-|-----0--0-0--|-0-0-4--4-2-4-------7--7-7-7--|| 
D||-x-x-x-x-0---|-4-4-4--4-4--|-2-2-2--2-2-2---6-6-6--6-6-6--||
A||-9-9-9-9-----|-5-5-5--5-5--|-0-0-0--0-0-0---4-4-4--4-4-4--||
E||-------------|-------------|------------------------------||


Gimme sympathy
After all this is gone
Who would you rather be
The Beatles or The Rolling Stones?
Oh seriously
You're gonna make mistakes you're young



E||-----0-0-0-0-0-0------0-0-0-0-0-0------0-0-0-0-0-0-0-0-0-0-0-0-0-0--||
B||-----5-5-5-5-5-5------0-0-0-0-0-0------7-7-7-7-7-7-7-7-7-7-7-7-7-7--||
G||-----0-0-0-0-0-0------0-0-0-0-0-0------0-0-0-0-0-0-0-0-0-0-0-0-0-0--|| REPEAT
D||-4-4-4-4-4-4-4-4--2-2-2-2-2-2-2-2--6-6-6-6-6-6-6-6-6-6-6-6-6-6-6-6--||
A||-5-5-5-5-5-5-5-5--0-0-0-0-0-0-0-0--7-7-7-7-7-7-7-7-7-7-7-7-7-7-7-7--||
E||--------------------------------------------------------------------||

Come on baby play me something,
Like here comes the sun

.............................................................................






E||-0-0-0-0-0-0-0-0-0-0-0-0-0-0-0-0--0-0-0-0-0-0-0-0-0-0-0-0-0-0-0-0--||
B||-0-0-0-0-0-0-0-0-0-0-0-0-0-0-0-0--0-0-0-0-0-0-0-0-0-0-0-0-0-0-0-0--||
G||-0-0-0-0-0-0-0-0-0-0-0-0-0-0-0-0--0-0-0-0-0-0-0-0-0-0-0-0-0-0-0-0--|| 
D||-2-2-2-2-2-2-2-2-2-2-2-2-2-2-2-2--9-9-9-9-9-9-9-9-9-9-9-9-9-9-9-9--||
A||-0-0-0-0-0-0-0-0-0-0-0-0-0-0-0-0--7-7-7-7-7-7-7-7-7-7-7-7-7-7-7-7--||
E||-------------------------------------------------------------------||

E||-0--0--0--0--0--0--0--0--0--0--0--0--0--0--0--0---0-0-0-0-0-0-0-0-0-0-0-0-0-0-0-0--||
B||-0--0--0--0--0--0--0--0--0--0--0--0--0--0--0--0---0-0-0-0-0-0-0-0-0-0-0-0-0-0-0-0--||
G||-0--0--0--0--0--0--0--0--0--0--0--0--0--0--0--0---0-0-0-0-0-0-0-0-0-0-0-0-0-0-0-0--|| REPEAT 
D||-11-11-11-11-11-11-11-11-11-11-11-11-11-11-11-11--4-4-4-4-4-4-4-4-4-4-4-4-4-4-4-4--||
A||-9--9--9--9--9--9--9--9--9--9--9--9--9--9--9--9---2-2-2-2-2-2-2-2-2-2-2-2-2-2-2-2--||
E||-----------------------------------------------------------------------------------||

Don't go
Stay with the all unknown
Stay away from the hooks
All the chances we took



------------------------------


     
E||--0--|--0--||
B||--5--|--7--||
G||--0--|--0--|| 
D||--4--|--6--||
A||--5--|--7--||
E||-----|-----||


We're so close to something better left unknown
We're so close to something better left unknown
I can feel it in my bones



..............................................................................


E||-----0-0-0-0-|-----0--0-0--|-0-0-0--0-0-0---0-0-0--0-0-0--||
B||-----8-8-7-0-|-----5--5-3--|-0-0-0--0-0-0---0-0-0--0-0-0--||
G||-0-0-0-0-0-0-|-----0--0-0--|-0-0-4--4-2-4---0-0-4--4-2-4--|| 
D||-x-x-x-x-0---|-4-4-4--4-4--|-2-2-2--2-2-2---2-2-2--2-2-2--||
A||-9-9-9-9-----|-5-5-5--5-5--|-0-0-0--0-0-0---0-0-0--0-0-0--||
E||-------------|-------------|------------------------------||

E||-----0-0-0-0-|-----0--0-0--|-0-0-0--0-0-0-------0--0-0-0--||
B||-----8-8-7-0-|-----5--5-3--|-0-0-0--0-0-0-------0--0-0-0--||
G||-0-0-0-0-0-0-|-----0--0-0--|-0-0-4--4-2-4-------7--7-7-7--|| 
D||-x-x-x-x-0---|-4-4-4--4-4--|-2-2-2--2-2-2---6-6-6--6-6-6--||
A||-9-9-9-9-----|-5-5-5--5-5--|-0-0-0--0-0-0---4-4-4--4-4-4--||
E||-------------|-------------|------------------------------||

Gimme sympathy
After all this is gone
Who would you rather be
The Beatles or The Rolling Stones?
Oh seriously
You're gonna make mistakes you're young




E||-----0-0-0-0-0-0------0-0-0-0-0-0------0-0-0-0-0-0-0-0-0-0-0-0-0-0--||
B||-----5-5-5-5-5-5------0-0-0-0-0-0------7-7-7-7-7-7-7-7-7-7-7-7-7-7--||
G||-----0-0-0-0-0-0------0-0-0-0-0-0------0-0-0-0-0-0-0-0-0-0-0-0-0-0--|| REPEAT
D||-4-4-4-4-4-4-4-4--2-2-2-2-2-2-2-2--6-6-6-6-6-6-6-6-6-6-6-6-6-6-6-6--||
A||-5-5-5-5-5-5-5-5--0-0-0-0-0-0-0-0--7-7-7-7-7-7-7-7-7-7-7-7-7-7-7-7--||
E||--------------------------------------------------------------------||

Come on baby play me something,
Like here comes the sun

.............................................................................




#----------------------------------PLEASE NOTE---------------------------------#
#This file is the author's own work and represents their interpretation of the #
#song. You may only use this file for private study, scholarship, or research. #
#------------------------------------------------------------------------------##
Tap to rate this tab
# A B C D E F G H I J K L M N O P Q R S T U V W X Y Z